Song name
# A B C D E F G H I J K L M N O P Q R S T U V W X Y Z

Saetia - Burden Of Reflecting tab

----------------------------------------------------------------------------
			     Burden Of Reflecting - Saetia
----------------------------------------------------------------------------
Tabbed by: Matthew Green
Email: Matt_green_skater@hotmail.com

Tuning: Drop D

e|--------------------------4-2-------2------------4-2-------4----------|
B|------------------------------2---2---2--------------2---2---2--------|
G|----------------------------------------------------------------------|
D|-0-0-0-4-4------0-0-0-4-4--------------0-0-0-4-4----------------------|
A|-0-0-0-4-4------0-0-0-4-4-----2-2---2--0-0-0-4-4----------------------|
E|-0-0-0-4-4------0-0-0-4-4--------------0-0-0-4-4----------------------|

e|----------------------------------------------------------------------|
B|----------------------------------------------------------------------|
G|-6--6--7---7---7h-----------------------------------------------------|
D|----------------------0-0-0---0-0-0-0--0-0-0--------------------------|
A|-5--5--5---5---5h-----0-0-0---0-0-0-0--0-0-0--------------------------|
E|-0--0--0---0----------0-0-0---0-0-0-0--0-0-0--------------------------|

e|----------------------------------------------------------------------|
B|----------------------------------------------------------------------|
G|-------------6-6-6----------------------------------------------------|
D|-4-6-4-6-4-0-6-6-6----------------------------------------------------| 
A|-4-6-4-6-4-0-4-4-4----------------------------------------------------|
E|-4-6-4-6-4-0-0-0-0----------------------------------------------------|

e|----------------------------------------------------------------------|
B|----------------------------------------------------------------------|
G|----------------------------------------------------------------------|
D|-------------------------------------------------6--------------------|
A|-4-4-4-5-5-5-7-7-4-4-4-5-5-5-7-7-0-0-0-0-0-0-0-0-4--------------------|
E|-4-4-4-5-5-5-7-7-4-4-4-5-5-5-7-7-0-0-0-0-0-0-0-0----------------------|

e|--------------------------4-2-------2------------4-2-------4----------|
B|------------------------------2---2---2--------------2---2---2--------|
G|----------------------------------------------------------------------|
D|-0-0-0-4-4------0-0-0-4-4--------------0-0-0-4-4----------------------|
A|-0-0-0-4-4------0-0-0-4-4-----2-2---2--0-0-0-4-4----------------------|
E|-0-0-0-4-4------0-0-0-4-4--------------0-0-0-4-4----------------------|
Tap to rate this tab
# A B C D E F G H I J K L M N O P Q R S T U V W X Y Z