Safety Word Orange - Giving Up tab

Giving Up 
Safety Word Orange (SWO)
. = palm mute
Verse (Intro)
e|-------------------------------------------------------------------------|
B|-------------------------------------------------------------------------|
G|-------------------------------------------------------------------------|
D|---4--4--4--4---/---3--3--3--3---------------------------------------(4x)|
A|---2--2--2--2---/---1--1--1--1-----2--2--2--2------------4--4--4--4------|
E|-----------------------------------0--0--0--0------------2--2--2--2------|
     .  .  .  .       .  .  .  .     .  .  .  .            .  .  .  .
Pre - Chorus
e|-------------------------------------------------------------------------|
B|-------------------------------------------------------------------------|
G|-------------------------------------------------------------------------|
D|--------8--8--8--8--8--8--8--8----9--9--9--9--9--9--9--9-------------(2x)|
A|--------6--6--6--6--6--6--6--6----7--7--7--7--7--7--7--7-----------------|
E|-------------------------------------------------------------------------|

Chorus
e|-------------------------------------------------------------------------|
B|-------------------------------------------------------------------------|
G|-------------------------------------------------------------------------|
D|---4--4--4--4---/---3--3--3--3---------------------------------------(4x)|
A|---2--2--2--2---/---1--1--1--1-----2--2--2--2------------4--4--4--4------|
E|-----------------------------------0--0--0--0------------2--2--2--2------|

(you can also do a single strum for each power chord)
Solo
e|------------------4---2-----------1------1-----------1-------1-----------|
B|-----------2---4-------------------0--0-----0---------0--0----0----------|
G|-----/-4-----------------------------------------------------------------|
D|-------------------------------------------------------------------------|
A|-------------------------------------------------------------------------|
E|-------------------------------------------------------------------------|

e|------------------4-/-7------9--7-----7----/-10--------------------------|
B|-----------2---4--------------------9------------------------------------|
G|-----/-4-----------------------------------------------------------------|
D|-------------------------------------------------------------------------|
A|-------------------------------------------------------------------------|
E|-------------------------------------------------------------------------|
Tap to rate this tab
 
# A B C D E F G H I J K L M N O P Q R S T U V W X Y Z