Song name
# A B C D E F G H I J K L M N O P Q R S T U V W X Y Z

Safetysuit - Someone Like You Acoustic tab

Help us improve GuitareTab! Take a short survey!
amazing song. acoustic version taken from live preformances.  hope this is useful

e|---------------------------------------------|
B|---------------------------------------------|
G|--------11-11-11------------8-8-8------------|
D|-9-9-9---9--9--9--11-11-11--9-9-9--9-9-11-11-|
A|-9-9-9-------------9--9--9---------9-9--9--9-|
D|---------------------------------------------|

e|---------------------------------------------|
B|---------------------------------------------|
G|--------11-11-11------------8-8-8------------|
D|-9-9-9---9--9--9--11-11-11--9-9-9--9-9-11-11-|
A|-7-7-7---7--7--7---7--7--7-------------------|
D|---------------------------------------------|


e|-------|
B|-------|
G|-4--4--| Guitar 1
D|-4--2--|
A|-2--2--|
D|----2--|

e|-------|
B|-------|
G|-7--9--|
D|-9--9--|
A|-9--7--|
D|-9-----|


Bridge

e|-------|
B|-------|
G|-8--4--|
D|-6--2--|
A|-6--2--|
D|-6--2--|

for questions comments and suggestions you can e-mail me at bsiekerk@optonline.net or 
leave a comment
Related for Someone Like You Acoustic tab