Song name
# A B C D E F G H I J K L M N O P Q R S T U V W X Y Z

Safetysuit - Hallelujah tab

Standard tuning
Solo begins at 1:46

e||-----|----------------|----------------|-----------------||
B||--13-|-------12-13-13-|-------12-13-12-|-------12-13-13--||
G||-----|--12-14---------|--12-14---------|--12-14----------||
D||-----|----------------|----------------|-----------------||
A||-----|---Six Times----|---Two Times----|---Three Times---||
E||-----|----------------|----------------|-----------------||

e||----------------|----------------|----------------|-------------|
B||-------13h15p13-|-------12-13-13-|-------12-13-12-|-------12-13-|
G||--12-14---------|--12-14---------|--12-14---------|--12-14------|
D||----------------|----------------|----------------|-------------|
A||----------------|---Two Times----|---Two Times----|-------------|
E||----------------|----------------|----------------|-------------|

e||--------------------------------------------------|
B||--15-13-12----------------------------------------|
G||----------14-12-----------------------------------|
D||---------------15-14-12---------------------------|
A||-----------------------15-14-12-------------------|
E||-------------------------------15-13~-15~-17~-20~-|

e||-----|----------------|----------------|-----------------||
B||--13-|-------12-13-13-|-------12-13-12-|-------12-13-13--||
G||-----|--12-14---------|--12-14---------|--12-14----------||
D||-----|----------------|----------------|-----------------||
A||-----|----------------|---Two Times----|---Two Times-----||
E||-----|----------------|----------------|-----------------||

e||----------------|----------------|----------------|--------15-15-15\-||
B||-------13h15p13-|-------12-13-13-|-------12-13-12-|--------13-13-13\-||
G||--12-14---------|--12-14---------|--12-14---------|--12-14-12-12-12\-||
D||----------------|----------------|----------------|------------------||
A||----------------|---Three Times--|----------------|------------------||
E||----------------|----------------|----------------|------------------||
Tap to rate this tab
 
# A B C D E F G H I J K L M N O P Q R S T U V W X Y Z