Guitaretab - guitar tabs
Song name
# A B C D E F G H I J K L M N O P Q R S T U V W X Y Z

Saga - On The Loose tab

-----------------------------------------------------------------------
		       On The Loose - Saga
-----------------------------------------------------------------------
Tabbed by:5150rocker
Email:5150rocker@sbcglobal.net

 On this tab the palm mute and pick attack is especially important to imitate the sounds
the original recording.The p.m. is critical for the keyboard intro RIFF 1.I'm not
where the p.m. or which is key board or guitar and things like that in this tab.You 
listen o the song and then you will know.This is kind of a tough one and probably not
accurate but you should get what you need from it.I hope you enjoy.

Tuning:1/2 down
   INTRO RIFF 1 Play alone 4x's for intro
            Then play 4x's for verse with riff 2

e|-----8-7------8-----7-8-----8-----10-7------10----10-7------10--|
B|----6---6---6-----6----6---6-----8----8---8------8----8---8-----|
G|---7------5------7-------5------9-------7-------9-------7-------|
D|--5-------------5--------------7---------------7----------------|
A|----------------------------------------------------------------|
E|----------------------------------------------------------------|
 |RIFF 2                                                          |
e|----------------------------------------------------------------|
B|----------------------------------------------------------------|
G|----------------------------------------------------------------|
D|----------------------------------------------------------------|
A|----------------------------------------------------------------|
E|xx1~~~--------xx1~~~---------xx3~~~----------xx3~~~-------------|
   CHORUS RIFF 3 Play 2x's
e|---------------------------------------------------|
B|---------------------------------------------------|
G|---------------------------------------------------|
D|--3~~~5-3-2-0----5~~~~--------3~~~5-3-2-0----5~~~--|
A|---------------3-------/3-2-0--------------3-------|
E|----------------3-------------1-------------3------|
 Play RIFF 1&2 4x's for next verse
 then Play RIFF3 4x's for next CHORUS
  SOLO
e|----------------------------------------------|
B|--10----13-10----13---------------------------|
G|*----12-------12-----------------------------*|
D|*--------------------------------------------*|
A|----------------------------------------------|
E|----------------------------------------------|
 |                                              |
e|----------------------------------------------|
B|-------------------1313-13p12-13-15-17-15~~~\-|
G|*--------------------------------------------*|
D|*--------------------------------------------*|
A|----------------------------------------------|
E|----------------------------------------------|
[ Tab from: http://www.guitaretab.com/s/saga/205826.html ]
e|----------------------------------------------|
B|--10----13-10----13---------------------------|
G|-----12-------12------------------------------|
D|----------------------------------------------|
A|----------------------------------------------|
E|----------------------------------------------|
 |                                              |
e|----------------------------------------------|
B|-------------------1818-18p17-18-20-22-20~~~\-|
G|----------------------------------------------|
D|----------------------------------------------|
A|----------------------------------------------|
E|----------------------------------------------|
    p.m...........................
e|--1717-15-14---------------------1717\-|
B|------------1717-15-14-----------------|
G|----------------------1717-15-14-------|
D|---------------------------------------|
A|---------------------------------------|
E|---------------------------------------|
    RIFF 4 play 2x's
e|----------------------------------------------------|
B|----------------------------------------------------|
G|----------------------------------------------------|
D|--333333-7-5-0-3-5-3-2-0-2-333333-7-5-0-3-5-3-2-0-2-|
A|----------------------------------------------------|
E|----------------------------------------------------|

e|----------------------------------|
B|----------------------------------|
G|-----------------------3-5/7~~~~~-|
D|--333333-7-5-0-2-3-5-7------------|
A|----------------------------------|
E|----------------------------------|

   RIFF 5

e|--17p15p14-------------------------17p15p14-------------------------|
B|----------17p15p14--------12h14h15---------17p15p14--------12h14h15-|
G|------------------12h14h15-------------------------12h14h15---------|
D|--------------------------------------------------------------------|
A|--------------------------------------------------------------------|
E|--------------------------------------------------------------------|

e|----------10--------10--------10--------10h12h13p12p10---------|
B|--10h12h13--10h12h13--10h12h13--10h12h13--------------13p12p10-|
G|---------------------------------------------------------------|
D|---------------------------------------------------------------|
A|---------------------------------------------------------------|
E|---------------------------------------------------------------|

e|----------|
B|--12p10p9-|
G|----------|
D|----------|
A|----------|
E|----------|

 Play RIFF 4 1 x's then play RIFF 5 again
   Final VERSE here are the two chords played
e|-------------|
B|-------------|
G|--10----12---|
D|--10----12---|
A|---8----10---|
E|-------------|
 |             |
e|-------------|
B|-------------|
G|-------------|
D|-------------|
A|-------------|
E|-xx1~~~xx3~~-|

 Play CHORUS RIFF 3 Until song end

| /  slide up
| \  slide down
| h  hammer-on
| p  pull-off
| ~  vibrato
| +  harmonic
| x  Mute note
===============================================================================
Related for On The Loose tab
×
Best way to learn
"On The Loose"