Song name
# A B C D E F G H I J K L M N O P Q R S T U V W X Y Z

Sage Francis - Going Back To Rehab tab

SAGE FRANCIS - GOING BACK TO REHAB
From the album "Human the Death Dance"

Guitar 1:
e|-----------------------------------------------------------------|
B|-------------------0-----0-----0---2-----2-----2---0-----0-----0-|
G|---2-----2-----2-----2-----2---------2-----2---------2-----2-----|
D|-----0-----0-----------------------------------------------------|
A|-2-----2-----2---2-----2-----2---2-----2-----2---2-----2-----2---|
E|-----------------------------------------------------------------|

Guitar 2:
e|-----------------------------------------------------------------|
B|-----------------------------------------------------------------|
G|-----------------------------------------------------------------|
D|-----------------------------------------------------------------|
A|-2-2-2-2-2-2-2-4-2-2-2-2-5-4-2-----------5-4-2-------------------|
E|-------------------------------5-2-2-2-2-------5-0-0-0-0-2-5-2-5-|

Tabbed by L!(-A-)M (liam_aka_jesus@hotmail.com)
Tap to rate this tab
 
# A B C D E F G H I J K L M N O P Q R S T U V W X Y Z