Song name
# A B C D E F G H I J K L M N O P Q R S T U V W X Y Z

Sagi Rei - Ill Fly With You chords

Highlighted       Show chord diagrams
Artist - Sagi Rei
Song - I'll fly with you
Tabbed by Gioacchino La Rochelle
Cape on the 2nd

INTRO + VERSE

  C               E                 A-            F  
E-------------------------------------------------------------------|
B-----1---3---1--------0---3---0--------1--3---1------1----3----1---|
G---0---0---0--------1---1---1--------2--2---2------2----2----2---2-|
D-2----------------2----------------2-------------3-----------------|
A-------------------------------------------------------------------|
E-------------------------------------------------------------------|


INTERLUDE
  (1)                (2)   
E---3---1---0----------3---1---0--|
B-1---1---1---1------1---1----1---|
G---------------------------------|
D---------------------------------|
A---------------------------------|
E---------------------------------|

VERSE

C
I still believe in your eyes;
              C
I just don't care what
          
You've done in your life.
          C
Baby i'll always be here by your side;
               C
Don't leave me waiting too long,

Please come by!
C
I still believe in your eyes
              C
there is no choice, I belong to your life
          C
because I will live to love you someday
              C 
you'll be my baby and we'll fly away

and I'll fly with you

INTERLUDE

I'll fly with you
I'll fly with you
I'll fly with you
I'll fly with you
I'll fly with you

CHORUS (only chords)
C          E         A-
Every day and every night
F         C             E          A-
I always dream that you are by my side
F          C         E         A- 
oh, baby, every day and every night
F           C            E         A-
well I said everything's gonna be alright
    F
and I'll fly with you

I'll fly with you

I'll fly with you
Tap to rate this tab
# A B C D E F G H I J K L M N O P Q R S T U V W X Y Z