Song name
# A B C D E F G H I J K L M N O P Q R S T U V W X Y Z

Sagi Rei - Ill Fly With You tab

 I'll Fly With You (Sagi Rei)
--------------------------------------------------------------------------------
tabbed by: masho90




Intro:

   D9                F#7               Bm                G
e|---------0-------|---------0-------|---------0-------|---------0-------|
B|-----3-------3---|-----2-------2---|-----3-------3---|-----3-------3---|
G|---2---2---2---2-|---3---3---3---3-|---4---4---4---4-|---4---4---4---4-|
D|-0---------------|-4---------------|-4---------------|-5---------------| (x2)
A|-----------------|-----------------|-----------------|-----------------|
E|-----------------|-----------------|-----------------|-----------------|


verse:

   D9                F#7               Bm                G
e|---------0-------|---------0-------|---------0-------|---------0-------|
B|-----3-------3---|-----2-------2---|-----3-------3---|-----3-------3---|
G|---2---2---2---2-|---3---3---3---3-|---4---4---4---4-|---4---4---4---4-|
D|-0---------------|-4---------------|-4---------------|-5---------------| (x4)
A|-----------------|-----------------|-----------------|-----------------|
E|-----------------|-----------------|-----------------|-----------------|

     D9                F#7               Bm                G
e||----------0-------|---------0-------|---------0-------|---------0-------|
B||*-----3-------3---|-----2-------2---|-----3-------3---|-----3-------3---|
G||----2---2---2---2-|---3---3---3---3-|---4---4---4---4-|---4---4---4---4-|
D||--0---------------|-4---------------|-4---------------|-5---------------|
A||*-----------------|-----------------|-----------------|-----------------|
E||------------------|-----------------|-----------------|-----------------|

   D9                F#7               Bm               G
e|---------0-------|---------0-------|----------------|-----------------||
B|-----3-------3---|-----2-------2---|-3--------------|-3--------------*||
G|---2---2---2---2-|---3---3---3---3-|-4--------------|-4---------------||
D|-0---------------|-4---------------|-4--------------|-5---------------|| (x2)
A|-----------------|-----------------|----------------|----------------*||
E|-----------------|-----------------|----------------|-----------------||


special:

     D               F#7               Bm              G
e||----------------|-----------------|---------------|------------------||
B||*----10---9---7-|----10---9---7---|----10---9---7-|----10---9---7---*||
G||---7----7---7---|--6----6---6---7-|--7----7---7---|--7----7---7---7--||
D||----------------|-----------------|---------------|------------------|| (x4)
A||*---------------|-----------------|---------------|-----------------*||
E||----------------|-----------------|---------------|------------------||


bridge:

   D                 F#                Bm                G
e|-10--------------|-----9-----------|-7---------------|-----7-----------|
B|-10--------------|-----7-----------|-7---------------|-----8-----------|
G|-11--------------|-6-7-6-----------|-7---------------|-6-7-7-----------|
D|-12--------------|-----------------|-9---------------|-----------------|
A|-----------------|-----------------|-----------------|-----------------|
E|-----------------|-----------------|-----------------|-----------------|

   D                 F#7               Bm                G
e|-10--------------|-----6-----------|-7---------------|-----10----------|
B|-10--------------|---7-------------|-7---------------|---8-------x-----|
G|-11--------------|-6---------------|-7---------------|-7---------x-----|
D|-12--------------|-----------------|-9---------------|-----------x-----|
A|-----------------|-----------------|-----------------|-----------x-----|
E|-----------------|-----------------|-----------------|-----------x-----|


verse & ending solo:

| D    | F#7   | Bm   | G    |  (x12)

| D    |





_______________________________________________________________________________
text:


I still believe in your eyes
I just don稚 care what
You致e done in your life.
Baby i値l always be here by your side
Don稚 leave me waiting too long,
Please come by!
I still believe in your eyes
There is no choice,     
I belong to your life.
Because i, i need you love you someday
You値l be my baby
And will fly your way

And i値l fly with you,
I値l fly with you,
I値l fly with you
And i値l fly with you.
Every day and every night,
I always dream that
You are by my side.
Oh, baby, every day and every night,
Will i celebrate
It痴 born to be your life!
And i値l fly with you,
I値l fly with you,
And I値l fly with you
I値l fly with you
I値l fly with you
Tap to rate this tab
# A B C D E F G H I J K L M N O P Q R S T U V W X Y Z