Song name
# A B C D E F G H I J K L M N O P Q R S T U V W X Y Z

Sahara Hotnights - The Lonliest City Of All tab

Help us improve GuitareTab! Take a short survey!
Några olika varianter på riffet i
Sahara Hotnights - The Lonliest City Of All

Lätt version med bara en ton, går även att spela i första läget

E|5/13-13---------------------------------------------------|
B|---------15-13--15-15-13--13---------13-13-13-------------|
G|------------------------------14--14---------14-12~~~~----|
D|----------------------------------------------------------|
A|----------------------------------------------------------|
E|----------------------------------------------------------|

Lätt version med två toner hela tiden

E|13-13--10-8--10-10-8-8-5--5--9-9-9-5----------------------|
B|13-13--10-8--10-10-8-8-5--5--9-9-9-5--8~------------------|
G|-------------------------------------7~~------------------|
D|----------------------------------------------------------|
A|----------------------------------------------------------|
E|----------------------------------------------------------|

Man kan även spela i treklang, det kommer senare, jag ska bara ta ut det

Av: Erza
Related for The Lonliest City Of All tab