Song name
# A B C D E F G H I J K L M N O P Q R S T U V W X Y Z

Sahara Hotnights - Salty Lips tab

Salty lips (Sahara hotnights)



Intro:

e|-----------------------|
B|------------------5----|
G|---6----9---------6----|
D|---7----9----9----6----|
A|---7----7----9----4----|
E|---5---------7---------|


Couplet:

e|-----------------------------------------|
B|-------------5-----------------5---------|
G|---6----9----6-------6----9----6----8----|
D|---7----9----6-------7----9----6----9----|
A|---7----7----4-------7----7----4----9----|
E|---5-----------------5--------------7----|


Refrain:

e|-----------------------|
B|------------------5----|
G|---6----9---------6----|
D|---7----9----9----6----|
A|---7----7----9----4----|
E|---5---------7---------|


by lady-champy, enjoy ^^

Tap to rate this tab
# A B C D E F G H I J K L M N O P Q R S T U V W X Y Z