Song name
# A B C D E F G H I J K L M N O P Q R S T U V W X Y Z

Sahara Hotnights - Neon Lights tab

Band: Sahara Hotnights
Song: Neon Lights
tabbed:greenday2003
E-mail: Greenday_rhcp2002@yahoo.co.uk


Im doin this by memory so hope i got it right. Comments and corrections welcome


Intro And verse(-slide)
|-------------------------------------|
|------9-9----------------------------|
|------9-9-8-8-----10-10-10--1010--10-|
|------9-9-9-9-----12-12-12--1212--10-|
|-12/--7-7-9-9-----12-12-12--1212--10-|
|----------7-7-x2--10-10-10--1010---8-|


Chorus
|----------------|
|----------------|
|-9--7--5--44-5~-|
|-9--7--5--44-5~-|
|-7--5--3--22-3~-|
|----------------|

Lead-Play around with this little scale-It varies
|--------------------|
|--------------------|
|-7/12/9~-7/9-12-7/9-|
|--------------------|
|--------------------|
|--------------------|


Outro lead 
|------------------------------------|
|------------------------------------|
|-7/9p9p9p-9b12b9--7-9p9p9p-7-9p9p9P-|
|------------------------------------|
|------------------------------------|
|------------------------------------|



Thats pretty much the whole song
The other part of 2nd guitar, i beleive its just the root notes of the verse
and two string power chords of verse
Tap to rate this tab
# A B C D E F G H I J K L M N O P Q R S T U V W X Y Z