Guitaretab - guitar tabs
Song name
# A B C D E F G H I J K L M N O P Q R S T U V W X Y Z

Sahara Hotnights - Cheek To Cheek tab

Sahara Hotnights - cheek to cheek



chords- played during the whole song

 Dm   F   Bb   F (A)


guitar interlude
[ Tab from: http://www.guitaretab.com/s/sahara-hotnights/153954.html ]
e|----------------------------------|----------------------------------|
B|-------------------------8----10--|-------------8---10------8--------|
G|--10---10---10-10---10------------|---10---10-----------------10-----|
D|----------------------------------|----------------------------------|
A|----------------------------------|----------------------------------|
E|----------------------------------|----------------------------------|


e|----------------------------------|----------------------------------|
B|----------------------------------|----------------------------------|
G|---7---7---7-7---7---9---10-------|----------------------------------|
D|----------------------------------|---10---10---7-10--10--7----------|
A|----------------------------------|--------------------------10--8---|
E|----------------------------------|----------------------------------|


// by Bjuv0
Related for Cheek To Cheek tab
Advertisement will be closed in 10 seconds