Song name
# A B C D E F G H I J K L M N O P Q R S T U V W X Y Z

Sahara Hotnights - Quite A Feeling tab

The song starts with barré chords.
E(xx9997)
D(xx7775)
C(xx5553)

Intro:
E                D                 C   
 Quite a Feeling, quite a releave, quite a mess. x2

Em
 Quite a mess...

Vers:
----------------------------------
----------------------------------
-----9---------------7------------
-----9---------------7------------
-----7-7-7-7-7-7-7-7-5-5-5-5-5-5-5
----------------------------------

----------------------------------
----------------------------------
----------------------------------
------9-9-8-8-7-7-----9-9-8-8-7-7-
--7-7-------------7-7-------------
----------------------------------


Pre Chorus:

C                        D                           Em
It's a blizzard outside, don't you dare stay inside


In the ref, it's the same as in the intro, but whith an Em as the first chord.

Amd thats it.
Tap to rate this tab
# A B C D E F G H I J K L M N O P Q R S T U V W X Y Z