Song name
# A B C D E F G H I J K L M N O P Q R S T U V W X Y Z

Sahara Hotnights - Empty Heart tab

Intro:

E E C#

e-------------------------------|
B--9----------------------------|
G-----11--9---------------------|
D-------------------------------|     x3
A-------------------------------|
E-------------------------------|

e-------------------------------|
B---------------9--9------------|
G---11--11--9---------11--9-----|
D-------------------------------|
A-------------------------------|
E-------------------------------|


Ref:

| E | C# B | A | E B |
Tap to rate this tab
# A B C D E F G H I J K L M N O P Q R S T U V W X Y Z