Song name
# A B C D E F G H I J K L M N O P Q R S T U V W X Y Z

Sahg - The Executioner Undead tab

Help us improve GuitareTab! Take a short survey!
-------------------------------------------------------------------------------
			     The Executioner Undead - Sahg
-------------------------------------------------------------------------------
Tabbed by: Eladamri
Email: krosancolossus@hotmail.com

It's not 100% so send me some corrections!

Tuning: Drop D

Intro Riff 
                                             x6
e|------------------------------------------|
B|------------------------------------------|
G|------------------------------------------|
D|---------------6--------------------------|
A|--3h5-5-565-5-5-5-5-5-----3h5p3-----------|
D|----------------------5-6-------6---------|

Pre-Chorus

e|-----------------------------------------------|
B|-----------------------------------------------|
G|--33--3333-3333-3333-33-6/7/9/10\9\7\6---------|
D|--33--3333-3333-3333-33-6/7/9/10\9\7\6--/x\----|
A|--11--1111-1111-1111-11-4/5/7/8 \7\5\4--/x\----|
D|----------------------------------------/x\----|

e|-----------------------------------------------|
B|-----------------------------------------------|
G|--33--3333-3333-3333-33-6/7/9/10\9\7-----------|
D|--33--3333-3333-3333-33-6/7/9/10\9\7-----------|
A|--11--1111-1111-1111-11-4/5/7/8 \7\5-7-7~------|
D|-----------------------------------------------|

Verse Riff
                                                                              x2
e|---------------------------------------------------------------------------|
B|---------------------------------------------------------------------------|
G|---------------------------------------------------------------------------|
D|---------------------------------------------------------------------------|
A|--3h5------6p5------3h5------6p5------3h5------6p5------3h5------88875p0---|
D|------0000-----0000-----0000-----0000-----0000-----0000-----0000-----------|

Pre-Chorus

Verse Riff x2

Pre-Chorus

Chorus
                                 x1
e|------------------------------|
B|------------------------------|
G|--33--3333-3333-3333----------|
D|--33--3333-3333-3333-/x\------|
A|--11--1111-1111-1111-/x\------|
D|---------------------/x\------|then
                                                                              x2
e|---------------------------------------------------------------------------|
B|---------------------------------------------------------------------------|
G|---------------------------------------------------------------------------|
D|----------------------------3-5-6----------------------------3-3-5---------|
A|----------------------------3-5-6----------------------------3-3-5---------|
D|-00-7p6p0-5b-7p6p0-5b-7p6p0-3-5-6-00-7p6p0-5b-7p6p0-5b-7p6p0-3-3-5---------|

Intro Riff x2
with
Lead Fill

e|--------------------------------------10~-------|
B|--------------10------10--13--10--13------------|
G|--12--10--12------12----------------------------|
D|------------------------------------------------|
A|------------------------------------------------|
D|------------------------------------------------|

Verse Riff x2

Pre-Chorus

Chorus

Bridge/Solo

e|---------------------|
B|---------------------|
G|---------------------|
D|--6-5-3-6-5-3--------|
A|--6-5-3-6-5-3--------|
D|--6-5-3-6-5-3--------|

e|--------------------------------------------------|
B|----------------------------------------6b--------|
G|------7-5-----5-------------7-5-----5-------------|
D|--0-0-----7-6---7-6-5-3-0-0-----7-6---7-----------|
A|--------------------------------------------------|
D|--------------------------------------------------|

e|--------------------------------------------------|
B|--------------------------------------------------|
G|------7-5-----5-------------------------------5---|
D|--0-0-----7-6---7-6-5-3-------3---3-5-3-5-6-7-----|
A|------------------------5-3-5---5-----------------|
D|--------------------------------------------------|

e|--------------------------------------------------|
B|----------------------------------------6b--------|
G|------7-5-----5-------------7-5-----5-------------|
D|--0-0-----7-6---7-6-5-3-0-0-----7-6---7-----------|
A|--0-0-------------------0-0-----------------------|
D|--0-0-------------------0-0-----------------------|

e|--------------------------------------------------|
B|--------------------------------------------------|
G|------7-5-----5-------------------------------5---|
D|--0-0-----7-6---7-6-5-3-------3---3-5-3-5-6-7-----|
A|--0-0-------------------5-3-5---5-----------------|
D|--0-0---------------------------------------------|

e|---------------------8----8--10---10---10---10---12---12---12---12---------|
B|--------6---6-8-9-10---10----13fb-13fb-13fb-13fb-15fb-15fb-15fb-15fb-------|
G|--7-5-7---7----------------------------------------------------------------|
D|---------------------------------------------------------------------------|
A|---------------------------------------------------------------------------|
D|---------------------------------------------------------------------------|

e|--19---19---19---19---18---18---18---18------------------------------------|
B|--22fb-22fb-22fb-22fb-21fb-21fb-21fb-21fb-----6fb--(feedback)--------------|
G|---------------------------------------------------------------------------|
D|---------------------------------------------------------------------------|
A|---------------------------------------------------------------------------|
D|---------------------------------------------------------------------------|

Pre-Chorus

Chorus x2

e|---------------------|
B|---------------------|
G|---------------------|
D|--6-5-3-6-5-3--------|
A|--6-5-3-6-5-3--------|
D|--6-5-3-6-5-3--------|





| /  slide up
| \  slide down
| h  hammer-on
| p  pull-off
| ~  vibrato
| +  harmonic
| x  Mute note
===============================================================================
Related for The Executioner Undead tab