Song name
# A B C D E F G H I J K L M N O P Q R S T U V W X Y Z

Sahg - Rivers Running Dry tab

-------------------------------------------------------------------------------
			     RIVERS RUNNING DRY - SAHG
-------------------------------------------------------------------------------
Tabbed by: Chris M.
Email: DHFanchris@yahoo.com
Band Website: http://www.sahgweb.com/

Tuning: Drop-D

INTRO x2
e|---------------------------------------------------------------------------|
B|---------------------------------------------------------------------------|
G|---------------------------------------------------------------------------|
D|------2----------2----------2----------2-----------------------------------| 
A|---------------------------------------------------------------------------|
D|--0h2---2---0h2-----2--0h2-----2--0h2-----2--------------------------------|


VERSE
e|---------------------------------------------------------------------------|
B|---------------------------------------------------------------------------|
G|---------------------------------------------------------------------------|
D|------2--------2-------2----5--7---3h-5-5---3h-5-5---8---3-----------------|
A|----------------------------5--7---3h-5-5---3h-5-5---8---3-----------------|
D|--0h2---2--0h2---2-0h2---2--5--7---3h-5-5---3h-5-5---8---3-----------------|

That's all I have for the moment. Fun song!


| /  slide up
| \  slide down
| h  hammer-on
| p  pull-off
| ~  vibrato
| +  harmonic
| x  Mute note
===============================================================================
Tap to rate this tab
 
# A B C D E F G H I J K L M N O P Q R S T U V W X Y Z