Song name
# A B C D E F G H I J K L M N O P Q R S T U V W X Y Z

Said The Shark - Blame The View tab

-------------------------------------------------------------------------------
			     Blame the View - Said the Shark
-------------------------------------------------------------------------------
Tabbed by:Johan Carĝe
Email:Soyasoyzz@hotmail.com

Tuning: standard

the whole song is the chord C#7 played with a little variation.

e|-------------------------------------------------------------------------|
B|------------------------------------------------6---7--------------------|
G|---6---6--4--4--7--4--4--4--7--4--4--4--6--6-----------6---6-------------|
D|--6---6--6--6--6--6--6--6--6--6--6--6--6--6---6---6---6---6--------------|
A|-4---4--4--4--4--4--4--4--4--4--4--4--4--4---4---4---4---4---------------|
E|-------------------------------------------------------------------------|
Tap to rate this tab
 
# A B C D E F G H I J K L M N O P Q R S T U V W X Y Z