Song name
# A B C D E F G H I J K L M N O P Q R S T U V W X Y Z

Said The Whale - Holly Ontario tab

capo 1st fret (Standard Tuning)

I only have the Guitar 1 Part figured out at this point.


E|--------------------|
B|---1--1--1--1--1--1-|
G|---0--0--0--0--0--0-|
D|--------------------|
A|--3--3--3--3--3--3--|
E|--------------------|
                                 Repeat as many times as song demands.

E|--------------------|
B|---0--0--0--0--0--0-|
G|---0--0--0--0--0--0-|
D|--------------------|
A|--------------------|
E|--3--3--3--3--3--3--|
Tap to rate this tab
 
# A B C D E F G H I J K L M N O P Q R S T U V W X Y Z