Song name
# A B C D E F G H I J K L M N O P Q R S T U V W X Y Z

Said The Whale - Howe Sounds tab

hope this is right for anyone who enjoys a bit of said the whale

Standard tuning

listen to the song to get the general rythem, and im pretty sure this is all he plays

E----------------------------------------------------------------|
B----------------------------------------------------------------|
G----------------------------------------------------------------|
D---6--6/4--4------7--7/9--9---6--6/4--4------9--9/6--6----------|
A-0-----------0--0-----------------------------------------------|
E----------------------------0-----------0--0--------------------|

repeat

E-------0--4--2----|
B-2--2-------------|
G------------------|
D----------2--1----|
A-0--0--0----------|
E------------------|

this parts played when they sing the "lets go back to the coast baby west coast to the 
bit
Tap to rate this tab
# A B C D E F G H I J K L M N O P Q R S T U V W X Y Z