Song name
# A B C D E F G H I J K L M N O P Q R S T U V W X Y Z

Said The Whale - Camilo The Magician tab

so there are no tabs for the solo here, the chords are already tabbed out right so 
heres the solo...

A, Bm G x1

e|---------17~--------------/17~-10~-9~-7~-----------------------------|
B|---------------------------------------------------------------------|
G|-14~-14~-14~-14~-14~\--------------------------7h9---7h9---7h9-9/11~-|
D|-------------------------------------------7h9---7h9---7h9-----------|
A|---------------------------------------------------------------------|
E|---------------------------------------------------------------------|

e|------------7777777777777777777777777p0-----|
B|-10~---------tremelo pick for a while-------|
G|--------------------------------------------|
D|-----12~------------------------------------|
A|--------------------------------------------|
E|--------------------------------------------|


\ slide down
/ slide up
Tap to rate this tab
 
# A B C D E F G H I J K L M N O P Q R S T U V W X Y Z