Said The Whale - Howe Sounds tab

Not sure if it's exactly right... Here are the parts, the just repeat, use your ears for 
when to play each part

GUITAR 1:

Intro/verse part

e--------------------------------------------------------------------------------|
B--------------------------------------------------------------------------------|
G----------------2 2/ 4 4----------------4 4/1 1---------------------------------|
D-----6 6/4 4---------------6 6/4 4----------------------------------------------|
A---0--------0 0-----------------------------------------------------------------|
E------------------------0---------0 0-------------------------------------------|

Chorus/repeating part

e----------------4----2--------------------------------------------------------|
B-----------5----5----4--------------------------------------------------------|
G-----6 6 ---6---------4-------------------------------------------------------|
D-----7 7----------------------------------------------------------------------|
A------------------------------------------------------------------------------|
E------------------------------------------------------------------------------|

GUITAR 2:

Intro/verse part

e-----7/9--------------------7/9----------------------------------------------|
B----------7--7/9--9/12-----------7--7/5-5/2----------------------------------|
G-----------------------------------------------------------------------------|
D-----------------------------------------------------------------------------|
A-----------------------------------------------------------------------------|
E-----------------------------------------------------------------------------|

Chorus/repeating part

e-------------9--7------------------------------------------------------------|
B----------9------------------------------------------------------------------|
G-----9 9---------------------------------------------------------------------|
D-----------------------------------------------------------------------------|
A-----------------------------------------------------------------------------|
E-----------------------------------------------------------------------------|
Tap to rate this tab
 
# A B C D E F G H I J K L M N O P Q R S T U V W X Y Z