Song name
# A B C D E F G H I J K L M N O P Q R S T U V W X Y Z

Saigon Kick - Hostile Youth tab

Tuning: C# G# C# F# A# D# (so down 1/2 step from standard and "drop d" the 6th string)

I haven't done the solo yet nor the chorus.  However, this is the "meat"
of the song and the chorus is pretty much just a couple chords which
shouldn't be too hard to figure out

Legend: "/" is a slide down
Intro:

|-----------------------------------------------------------------------------------------------|
|-----------------------------------------------------------------------------------------------|
|------------------------------------------------------7----------------------------------------|
|------------------------------------------------------7----------------------------------------|
|------0----5-6-7-----0---3--5--0----------------------5----------------------------------------|
|------0----5-6-7-----0---3--5--0------3^--0--3^--0---------------------------------------------|

Verse: (repeat it)

|-----------------------------------------------------------------------------------------------|
|-----------------------------------------------------------------------------------------------|
|---------------7-----------------7--/--5-------------------------------------------------------|
|---------------7-----------------7--/--5-------------------------------------------------------|
|---------------5-----------------5--/--3-------------------------------------------------------|
|----0-0-0-0---------0-0-0-0--------------------------------------------------------------------|
Tap to rate this tab
 
# A B C D E F G H I J K L M N O P Q R S T U V W X Y Z