Song name
# A B C D E F G H I J K L M N O P Q R S T U V W X Y Z

Saigon Kick - Hostile Youth tab

-----------------------------------------------------------------------------
                                  
        Hostile Youth - Saigon Kick (GUITAR)
            
-----------------------------------------------------------------------------
Tabbed by: Scotto10

Tuning: Drop "D"

============================================================================= 


Guitar - Rhythm



                                      PM        PM      
     H.           E  E     E   E   E  E  E   E  E  E    
E||---------------------|------------------------------|
B||---------------------|------------------------------|
G||---------------------|------------------------------|
D||---------------------|--5s--6s--7-----3s--5---------|
A||---------------------|--5s--6s--7-----3s--5---------|
D||------------------0--|-------------0---------0--3b--|


       PM     PM                         PM        PM      
  E    E  E   E  H            E   E   E  E  E   E  E  E    
---------------------------|------------------------------|
---------------------------|------------------------------|
-----------------7~--------|------------------------------|
-----------------7~--------|--5s--6s--7-----3s--5---------|
---------------------------|--5s--6s--7-----3s--5---------|
--Lpb--0--3b--0------------|-------------0---------0--3b--|


       PM     PM                         PM        PM      
  E    E  E   E  H            E   E   E  E  E   E  E  E    
---------------------------|------------------------------|
-----------------3~--------|------------------------------|
-----------------2~--------|------------------------------|
---------------------------|--5s--6s--7-----3s--5---------|
---------------------------|--5s--6s--7-----3s--5---------|
--Lpb--0--3b--0------------|-------------0---------0--3b--|


       PM     PM                         PM        PM      
  E    E  E   E  H            E   E   E  E  E   E  E  E    
---------------------------|------------------------------|
---------------------------|------------------------------|
-----------------7~--------|------------------------------|
-----------------7~--------|--5s--6s--7-----3s--5---------|
---------------------------|--5s--6s--7-----3s--5---------|
--Lpb--0--3b--0------------|-------------0---------0--3b--|


       PM     PM              PM PM PM PM             PM PM PM PM             
  E    E  E   E  H            E  E  E  E  H           E  E  E  E  E   Q.      
---------------------------|-----------------------|-------------------------|
-----------------3~--------|-----------------------|-------------------------|
-----------------2~--------|--------------7--------|--------------7s--5------|
---------------------------|--------------7--------|--------------7s--5------|
---------------------------|--------------5--------|--------------5---3------|
--Lpb--0--3b--0------------|--0--0--0--0-----------|--0--0--0--0-------------|


  PM PM PM PM             PM PM PM PM               PM PM PM PM           
  E  E  E  E  H           E  E  E  E  E   Q.        E  E  E  E  H         
-----------------------|-------------------------|-----------------------|
-----------------------|-------------------------|-----------------------|
--------------7--------|--------------7s--5------|--------------7--------|
--------------7--------|--------------7s--5------|--------------7--------|
--------------5--------|--------------5s--3------|--------------5--------|
--0--0--0--0-----------|--0--0--0--0-------------|--0--0--0--0-----------|


  PM PM PM PM               PM PM PM PM             PM PM PM PM             
  E  E  E  E  E   Q.        E  E  E  E  H           E  E  E  E  E   Q.      
-------------------------|-----------------------|-------------------------|
-------------------------|-----------------------|-------------------------|
--------------7s--5------|--------------7--------|--------------7s--5------|
--------------7s--5------|--------------7--------|--------------7s--5------|
--------------5s--3------|--------------5--------|--------------5s--3------|
--0--0--0--0-------------|--0--0--0--0-----------|--0--0--0--0-------------|


  PM PM PM PM             PM PM PM PM               PM PM PM PM           
  E  E  E  E  H           E  E  E  E  E   Q.        E  E  E  E  H         
-----------------------|-------------------------|-----------------------|
-----------------------|-------------------------|-----------------------|
--------------7--------|--------------7s--5------|--------------7--------|
--------------7--------|--------------7s--5------|--------------7--------|
--------------5--------|--------------5s--3------|--------------5--------|
--0--0--0--0-----------|--0--0--0--0-------------|--0--0--0--0-----------|


  PM PM PM PM               PM PM PM PM             PM PM PM PM             
  E  E  E  E  E   Q.        E  E  E  E  H           E  E  E  E  E   Q.      
-------------------------|-----------------------|-------------------------|
-------------------------|-----------------------|-------------------------|
--------------7s--5------|--------------7--------|--------------7s--5------|
--------------7s--5------|--------------7--------|--------------7s--5------|
--------------5s--3------|--------------5--------|--------------5s--3------|
--0--0--0--0-------------|--0--0--0--0-----------|--0--0--0--0-------------|


  PM PM PM PM             PM PM PM PM             
  E  E  E  E  H           E  E  E  E  E   Q.      
-----------------------|-------------------------|
-----------------------|-------------------------|
--------------7--------|--------------7s--5------|
--------------7--------|--------------7s--5------|
--------------5--------|--------------5s--3------|
--0--0--0--0-----------|--0--0--0--0-------------|


             PM        PM             PM     PM            
  E   E   E  E  E   E  E  E      E    E  E   E  H          
------------------------------|---------------------------|
------------------------------|---------------------------|
------------------------------|-----------------7~--------|
--5s--6s--7-----3s--5---------|-----------------7~--------|
--5s--6s--7-----3s--5---------|---------------------------|
-------------0---------0--3b--|--Lpb--0--3b--0------------|


             PM        PM             PM     PM            
  E   E   E  E  E   E  E  E      E    E  E   E  H          
------------------------------|---------------------------|
------------------------------|---------------------------|
------------------------------|-----------------7~--------|
--5s--6s--7-----3s--5---------|-----------------7~--------|
--5s--6s--7-----3s--5---------|---------------------------|
-------------0---------0--3b--|--Lpb--0--3b--0------------|


             PM        PM             PM     PM            
  E   E   E  E  E   E  E  E      E    E  E   E  H          
------------------------------|---------------------------|
------------------------------|---------------------------|
------------------------------|-----------------7~--------|
--5s--6s--7-----3s--5---------|-----------------7~--------|
--5s--6s--7-----3s--5---------|---------------------------|
-------------0---------0--3b--|--Lpb--0--3b--0------------|


             PM        PM             PM     PM            
  E   E   E  E  E   E  E  E      E    E  E   E  H          
------------------------------|---------------------------|
------------------------------|---------------------------|
------------------------------|-----------------7~--------|
--5s--6s--7-----3s--5---------|-----------------7~--------|
--5s--6s--7-----3s--5---------|---------------------------|
-------------0---------0--3b--|--Lpb--0--3b--0------------|


  PM PM PM PM             PM PM PM PM               PM PM PM PM           
  E  E  E  E  H           E  E  E  E  E   Q.        E  E  E  E  H         
-----------------------|-------------------------|-----------------------|
-----------------------|-------------------------|-----------------------|
--------------7--------|--------------7s--5------|--------------7--------|
--------------7--------|--------------7s--5------|--------------7--------|
--------------5--------|--------------5s--3------|--------------5--------|
--0--0--0--0-----------|--0--0--0--0-------------|--0--0--0--0-----------|


  PM PM PM PM               PM PM PM PM             PM PM PM PM             
  E  E  E  E  E   Q.        E  E  E  E  H           E  E  E  E  E   Q.      
-------------------------|-----------------------|-------------------------|
-------------------------|-----------------------|-------------------------|
--------------7s--5------|--------------7--------|--------------7s--5------|
--------------7s--5------|--------------7--------|--------------7s--5------|
--------------5s--3------|--------------5--------|--------------5s--3------|
--0--0--0--0-------------|--0--0--0--0-----------|--0--0--0--0-------------|


  PM PM PM PM             PM PM PM PM               PM PM PM PM           
  E  E  E  E  H           E  E  E  E  E   Q.        E  E  E  E  H         
-----------------------|-------------------------|-----------------------|
-----------------------|-------------------------|-----------------------|
--------------7--------|--------------7s--5------|--------------7--------|
--------------7--------|--------------7s--5------|--------------7--------|
--------------5--------|--------------5s--3------|--------------5--------|
--0--0--0--0-----------|--0--0--0--0-------------|--0--0--0--0-----------|


  PM PM PM PM               PM PM PM PM             PM PM PM PM             
  E  E  E  E  E   Q.        E  E  E  E  H           E  E  E  E  E   Q.      
-------------------------|-----------------------|-------------------------|
-------------------------|-----------------------|-------------------------|
--------------7s--5------|--------------7--------|--------------7s--5------|
--------------7s--5------|--------------7--------|--------------7s--5------|
--------------5s--3------|--------------5--------|--------------5s--3------|
--0--0--0--0-------------|--0--0--0--0-----------|--0--0--0--0-------------|


  PM PM PM PM             PM PM PM PM               PM PM PM PM           
  E  E  E  E  H           E  E  E  E  E   Q.        E  E  E  E  H         
-----------------------|-------------------------|-----------------------|
-----------------------|-------------------------|-----------------------|
--------------7--------|--------------7s--5------|--------------7--------|
--------------7--------|--------------7s--5------|--------------7--------|
--------------5--------|--------------5s--3------|--------------5--------|
--0--0--0--0-----------|--0--0--0--0-------------|--0--0--0--0-----------|


  PM PM PM PM                          PM        PM      
  E  E  E  E  E   Q.        E   E   E  E  E   E  E  E    
-------------------------|------------------------------|
-------------------------|------------------------------|
--------------7s--5------|------------------------------|
--------------7s--5------|--5s--6s--7-----3s--5---------|
--------------5s--3------|--5s--6s--7-----3s--5---------|
--0--0--0--0-------------|-------------0---------0--3b--|


       PM     PM                         PM        PM      
  E    E  E   E  H            E   E   E  E  E   E  E  E    
---------------------------|------------------------------|
-----------------3~--------|------------------------------|
-----------------2~--------|------------------------------|
---------------------------|--5s--6s--7-----3s--5---------|
---------------------------|--5s--6s--7-----3s--5---------|
--Lpb--0--3b--0------------|-------------0---------0--3b--|


       PM     PM                         PM        PM      
  E    E  E   E  H            E   E   E  E  E   E  E  E    
---------------------------|------------------------------|
-----------------3~--------|------------------------------|
-----------------2~--------|------------------------------|
---------------------------|--5s--6s--7-----3s--5---------|
---------------------------|--5s--6s--7-----3s--5---------|
--Lpb--0--3b--0------------|-------------0---------0--3b--|


       PM     PM                         PM        PM      
  E    E  E   E  H            E   E   E  E  E   E  E  E    
---------------------------|------------------------------|
-----------------3~--------|------------------------------|
-----------------2~--------|------------------------------|
---------------------------|--5s--6s--7-----3s--5---------|
---------------------------|--5s--6s--7-----3s--5---------|
--Lpb--0--3b--0------------|-------------0---------0--3b--|


       PM     PM                                                    
  E    E  E   E  H            W                   W                 
---------------------------|-------------------|-------------------|
-----------------3~--------|-------------------|-------------------|
-----------------2~--------|--5----------------|--L----------------|
---------------------------|--5----------------|--L----------------|
---------------------------|--3----------------|--L----------------|
--Lpb--0--3b--0------------|-------------------|-------------------|


  W                   W                   W                   W                 
-------------------|-------------------|-------------------|-------------------|
-------------------|-------------------|-------------------|-------------------|
--4----------------|--L----------------|--3----------------|--L----------------|
--5----------------|--L----------------|--3----------------|--L----------------|
--2----------------|--L----------------|--1----------------|--L----------------|
-------------------|-------------------|-------------------|-------------------|


  W                   W                   W                   W                 
-------------------|-------------------|-------------------|-------------------|
--3----------------|-------------------|-------------------|-------------------|
--2----------------|-------------------|--5----------------|--L----------------|
--0----------------|--L----------------|--5----------------|--L----------------|
-------------------|-------------------|--3----------------|--L----------------|
--0----------------|--L----------------|-------------------|-------------------|


  W                   W                   W                   W                 
-------------------|-------------------|-------------------|-------------------|
-------------------|-------------------|-------------------|-------------------|
--4----------------|--L----------------|--3----------------|--L----------------|
--5----------------|--L----------------|--3----------------|--L----------------|
--2----------------|--L----------------|--1----------------|--L----------------|
-------------------|-------------------|-------------------|-------------------|


                      PM PM PM PM PM PM PM PM               PM        PM      
  W                   E  E  E  E  E  E  E  E     E   E   E  E  E   E  E  E    
-------------------|--------------------------|------------------------------|
-------------------|--------------------------|------------------------------|
--2----------------|--------------------------|------------------------------|
--2----------------|--2--2--2--2--2--2--2--2--|--5s--6s--7-----3s--5---------|
--0----------------|--0--0--0--0--0--0--0--0--|--5s--6s--7-----3s--5---------|
-------------------|--0--0--0--0--0--0--0--0--|-------------0---------0--3b--|


       PM     PM                         PM        PM      
  E    E  E   E  H            E   E   E  E  E   E  E  E    
---------------------------|------------------------------|
---------------------------|------------------------------|
-----------------7~--------|------------------------------|
-----------------7~--------|--5s--6s--7-----3s--5---------|
---------------------------|--5s--6s--7-----3s--5---------|
--Lpb--0--3b--0------------|-------------0---------0--3b--|


       PM     PM                         PM        PM      
  E    E  E   E  H            E   E   E  E  E   E  E  E    
---------------------------|------------------------------|
---------------------------|------------------------------|
-----------------7~--------|------------------------------|
-----------------7~--------|--5s--6s--7-----3s--5---------|
---------------------------|--5s--6s--7-----3s--5---------|
--Lpb--0--3b--0------------|-------------0---------0--3b--|


       PM     PM                         PM        PM      
  E    E  E   E  H            E   E   E  E  E   E  E  E    
---------------------------|------------------------------|
---------------------------|------------------------------|
-----------------7~--------|------------------------------|
-----------------7~--------|--5s--6s--7-----3s--5---------|
---------------------------|--5s--6s--7-----3s--5---------|
--Lpb--0--3b--0------------|-------------0---------0--3b--|


       PM     PM                                                    
  E    E  E   E  H            W                   W                 
---------------------------|-------------------|-------------------|
---------------------------|-------------------|-------------------|
-----------------7~--------|--5----------------|--L----------------|
-----------------7~--------|--5----------------|--L----------------|
---------------------------|--3----------------|--L----------------|
--Lpb--0--3b--0------------|-------------------|-------------------|


  W                   W                   W                   W                 
-------------------|-------------------|-------------------|-------------------|
-------------------|-------------------|-------------------|-------------------|
--4----------------|--L----------------|--3----------------|--L----------------|
--5----------------|--L----------------|--3----------------|--L----------------|
--2----------------|--L----------------|--1----------------|--L----------------|
-------------------|-------------------|-------------------|-------------------|


  H.           E  E     Q    E  E  Q    E  E     W                 
---------------------|------------------------|-------------------|
---------------7--8--|--8----7--8--7----7--7--|-------------------|
--7------------7--7--|--7----7--7--7----7--7--|--5----------------|
--7------------7--7--|--7----7--7--7----7--7--|--5----------------|
--5------------------|------------------------|--3----------------|
--0------------------|------------------------|-------------------|


  W                   W                   W                   W                 
-------------------|-------------------|-------------------|-------------------|
-------------------|-------------------|-------------------|-------------------|
--L----------------|--4----------------|--L----------------|--3----------------|
--L----------------|--5----------------|--L----------------|--3----------------|
--L----------------|--2----------------|--L----------------|--1----------------|
-------------------|-------------------|-------------------|-------------------|


  W                   W                   W                 
-------------------|-------------------|-------------------|
-------------------|-------------------|-------------------|
--L----------------|--2----------------|--L----------------|
--L----------------|--2----------------|--L----------------|
--L----------------|--0----------------|--L----------------|
-------------------|-------------------|-------------------|


             PM        PM             PM     PM            
  E   E   E  E  E   E  E  E      E    E  E   E  H          
------------------------------|---------------------------|
------------------------------|---------------------------|
------------------------------|-----------------7~--------|
--5s--6s--7-----3s--5---------|-----------------7~--------|
--5s--6s--7-----3s--5---------|---------------------------|
-------------0---------0--3b--|--Lpb--0--3b--0------------|


             PM        PM             PM     PM            
  E   E   E  E  E   E  E  E      E    E  E   E  H          
------------------------------|---------------------------|
------------------------------|---------------------------|
------------------------------|-----------------7~--------|
--5s--6s--7-----3s--5---------|-----------------7~--------|
--5s--6s--7-----3s--5---------|---------------------------|
-------------0---------0--3b--|--Lpb--0--3b--0------------|


             PM        PM             PM     PM            
  E   E   E  E  E   E  E  E      E    E  E   E  H          
------------------------------|---------------------------|
------------------------------|---------------------------|
------------------------------|-----------------7~--------|
--5s--6s--7-----3s--5---------|-----------------7~--------|
--5s--6s--7-----3s--5---------|---------------------------|
-------------0---------0--3b--|--Lpb--0--3b--0------------|


             PM        PM             PM     PM            
  E   E   E  E  E   E  E  E      E    E  E   E  H          
------------------------------|---------------------------|
------------------------------|---------------------------|
------------------------------|-----------------7~--------|
--5s--6s--7-----3s--5---------|-----------------7~--------|
--5s--6s--7-----3s--5---------|---------------------------|
-------------0---------0--3b--|--Lpb--0--3b--0------------|


             PM        PM             PM     PM            
  E   E   E  E  E   E  E  E      E    E  E   E  H          
------------------------------|---------------------------|
------------------------------|---------------------------|
------------------------------|-----------------7~--------|
--5s--6s--7-----3s--5---------|-----------------7~--------|
--5s--6s--7-----3s--5---------|---------------------------|
-------------0---------0--3b--|--Lpb--0--3b--0------------|


             PM        PM             PM     PM            
  E   E   E  E  E   E  E  E      E    E  E   E  H          
------------------------------|---------------------------|
------------------------------|---------------------------|
------------------------------|-----------------7~--------|
--5s--6s--7-----3s--5---------|-----------------7~--------|
--5s--6s--7-----3s--5---------|---------------------------|
-------------0---------0--3b--|--Lpb--0--3b--0------------|


             PM        PM             PM     PM            
  E   E   E  E  E   E  E  E      E    E  E   E  H          
------------------------------|---------------------------|
------------------------------|---------------------------|
------------------------------|-----------------7~--------|
--5s--6s--7-----3s--5---------|-----------------7~--------|
--5s--6s--7-----3s--5---------|---------------------------|
-------------0---------0--3b--|--Lpb--0--3b--0------------|


             PM        PM            PM     PM      PM  
  E   E   E  E  E   E  Q       Q     E  E   E  Q    E   
----------------------------|--------------------------|
----------------------------|------------------3-------|
----------------------------|------------------2-------|
--5s--6s--7-----3s--5-------|------------------0-------|
--5s--6s--7-----3s--5-------|--------------------------|
-------------0---------0----|--3b----0--3b--0-------0--|


        PM     PM      PM          PM     PM                             
  Q     E  E   E  Q    E     Q     E  E   E  Q.        W                 
--------------------------|-------------------------|-------------------|
------------------3-------|-------------------------|-------------------|
------------------2-------|------------------5------|--L----------------|
------------------0-------|------------------5------|--L----------------|
--------------------------|------------------3------|--L----------------|
--3b----0--3b--0-------0--|--3b----0--3b--0---------|-------------------|


  H.           E  E     E   E  E  E  E   E  E  E     H        Q     Q      
---------------------|----------------------------|----------------------||
---------------------|----------------------------|----------------------||
---------------------|----------------------------|--7--------L\---------||
---------------------|----------------------------|--7--------L\---------||
---------------------|----------------------------|--5--------L\---------||
------------------0--|--3b--2--1--0--3b--2--1--0--|----------------------||



===========================================================================
===========================================================================

Guitar 2  - lead


                                  H.           E  E   
-------|-------|-------|-------|---------------------|
-------|-------|-------|-------|---------------7--8--|
-------|-------|-------|-------|---------------7--7--|
-------|-------|-------|-------|---------------7--7--|
-------|-------|-------|-------|---------------------|
-------|-------|-------|-------|---------------------|


  Q    E  E  Q    E   E                                                    
--------------------------|-------|-------|-------|-------|-------|-------|
--8----7--8--7------------|-------|-------|-------|-------|-------|-------|
--7----7--7--7------------|-------|-------|-------|-------|-------|-------|
--7----7--7--7------------|-------|-------|-------|-------|-------|-------|
--------------------------|-------|-------|-------|-------|-------|-------|
---------------------12\--|-------|-------|-------|-------|-------|-------|


                   E    E   E    E   E    E   E    E   
-------|-------|-------10-------10-------10-------10--|
-------|-------|--13b------13b------13b------13b------|
-------|-------|--------------------------------------|
-------|-------|--------------------------------------|
-------|-------|--------------------------------------|
-------|-------|--------------------------------------|


   E    E   E    E   Q.         E   
-------10-------10-----------------|
--13b------13b-----------------10--|
-----------------------------------|
--------------------12brb----------|
-----------------------------------|
-----------------------------------|


   E    S  S   S  S  S  S   S   S  S  E   S  E    
-------10----------------------------------------|
----------13p-10----10---------------------------|
--12b------------13----13p-12p-10----12b----10~--|
----------------------------------12-------------|
-------------------------------------------------|
-------------------------------------------------|


                                                              \1      \1    
   S   S  S  S  S   S  S Q.        X X X X  E      Q.         Q.      Q     
-------------------------------------------13--|--15pbr------13------13----|
-----------------------------------------x-----|---------------------------|
---------------------------------------x-------|---------------------------|
--12p-10----10-----------------------x---------|---------------------------|
---------12----12p-11-10-8brb------x-----------|---------------------------|
-----------------------------------------------|---------------------------|


       \1                          
   E   Q.      Q        S   S  E   
---L--13----------------------10--|
--------------15brb-----L-/13-----|
----------------------------------|
----------------------------------|
----------------------------------|
----------------------------------|


   S  S  S  S  S  S  S  S  S  S  S  S  S  S  S  S  
--13-10-------15-10-------13-10-------15-10-------|
--------13-10-------13-10-------13-10-------13-10-|
--------------------------------------------------|
--------------------------------------------------|
--------------------------------------------------|
--------------------------------------------------|


   S  S  S  S  S  S  S  S  Q.         E      W                  
--13-10----10----------------------------|---------------------|
--------13----13-10------------------10--|--13b----------------|
--------------------13-12-10brb----------|---------------------|
-----------------------------------------|---------------------|
-----------------------------------------|---------------------|
-----------------------------------------|---------------------|


   Q.       Q.       Q         W                     H.             Q       
---------------------------|---------------------|-------------------------|
--13b------13b------13b----|--12~----------------|---L~------------12br----|
---------------------------|---------------------|-------------------------|
---------------------------|---------------------|-------------------------|
---------------------------|---------------------|-------------------------|
---------------------------|---------------------|-------------------------|


   H         Q.      S  S     Q      S  E      E   E   E      E   S  
--------------------------|-----------------------------------------|
--11---------L------------|---------13------------------------------|
-----------------------10-|--12b-------12pbr--10------12pbr--10-----|
--------------------12----|-----------------------12-------------12-|
--------------------------|-----------------------------------------|
--------------------------|-----------------------------------------|


   H          E   Q     S  S     S  S  E   S  S  Q.       E   E   
--13b---------L--13----10----|--10-------------------------------|
--------------------------13-|-----13-10---------------------10--|
-----------------------------|------------13-12-10~------12------|
-----------------------------|-----------------------------------|
-----------------------------|-----------------------------------|
-----------------------------|-----------------------------------|


   Q.         Q.      Q        Q.      Q.      Q     
---------------------------|------------------------|
--10brb--------------------|------------------------|
-------------12------11----|--12------11------------|
---------------------------|------------------12----|
---------------------------|------------------------|
---------------------------|------------------------|


   Q.         Q.      Q        Q      H          S  S  S  S  
---------------------------|--11b----10--------/12-10-12-12-|
--10brb--------------------|--------------------------------|
-------------12------11----|--------------------------------|
---------------------------|--------------------------------|
---------------------------|--------------------------------|
---------------------------|--------------------------------|


   W                     H         E    E   S  S  E   
--12b----------------|--12b----------------13-15-15--|
---------------------|----------------/15------------|
---------------------|-------------------------------|
---------------------|-------------------------------|
---------------------|-------------------------------|
---------------------|-------------------------------|


   H            H               H            H            
--15brb--------17brb--------|--19brb--------21brb--------|
----------------------------|----------------------------|
----------------------------|----------------------------|
----------------------------|----------------------------|
----------------------------|----------------------------|
----------------------------|----------------------------|


   H            H                                                            
--21brb---------Lbrb--------|-------|-------|-------|-------|-------|-------|
----------------------------|-------|-------|-------|-------|-------|-------|
----------------------------|-------|-------|-------|-------|-------|-------|
----------------------------|-------|-------|-------|-------|-------|-------|
----------------------------|-------|-------|-------|-------|-------|-------|
----------------------------|-------|-------|-------|-------|-------|-------|





Duration Legend
---------------
W - whole
H - half
Q - quarter
E - 8th
S - 16th
T - 32nd
X - 64th
. - note dotted
|-n-|  - n-tuplets


Tablature Legend
----------------
L - tied note
x - dead note
g - grace note
(n) - ghost note
> - accentuded note
NH - natural harmonic
AH - artificial harmonic
TH - tapped harmonic
SH - semi harmonic
PH - pitch harmonic
h - hammer on
p - pull off
b - bend
br - bendRelease
pb - preBend
pbr - preBendRelease
brb - bendReleaseBend
\n/ - tremolo bar dip
\n - tremolo bar dive
-/n - tremolo bar Release up
/n\ - tremolo bar inverted dip
/n - tremolo bar return
-\n - tremolo bar Release down
S - shift slide
s - legato slide
/ -  slide into from below or out of upwards
\ -  slide into from above or out of downwards
~ - vibrato
W - wide vibrato
tr - trill
TP - tremolo picking
T - tapping
S - slap
P - pop
< - fade in
^ - brush up
v - brush down
Tap to rate this tab
# A B C D E F G H I J K L M N O P Q R S T U V W X Y Z