Song name
# A B C D E F G H I J K L M N O P Q R S T U V W X Y Z

Saigon Kick - Hostile Youth tab

I can't completely figure this intro out but it's not up here yet so maybe people will 
it right so they can correct me.


-----------------------------------------------|  my first version
-----------------------------------------------|
---/5-7-5---3-5------------/7------------------|
---/5-7-5---3-5------------/7------------------|
-----------------------------------------------|
--0-------0-----0-3*-0-3*-0--------------------|
                slight bend on *

-----------------------------------------------| my alternate version
-----------------------------------------------|
-----------------------------------------------|
-----------------------------------------------|
----9-10-12---5-7-----------/12----------------|
--0-9-10-12-0-5-7-0-3-0-3-0-/12----------------|
                    *   *


verse riff

-----------------------------------------------|
-----------------------------------------------|
----------/7-------------7-5-------------------|
----------/7-------------7-5-------------------|
-----------------------------------------------|
--0-0-0-0--------0-0-0-0-----------------------|
Tap to rate this tab
# A B C D E F G H I J K L M N O P Q R S T U V W X Y Z