Song name
# A B C D E F G H I J K L M N O P Q R S T U V W X Y Z

Sail By The Stars - A Glowworm Never Grows Dim tab

http://sailbythestars.net/
Artist: Sail By The Stars
Song: A Glowworm Never Grows Dim
Album: The Night Owl EP

This tab is only the lead guitar. I don't have the chords figured out yet.

Verse
e) --h-----h---14--11-----------h-----h---14--11----------------|
B) 12-14-12-14----------------12-14-12-14-------------12--------|
G) -------------------------------------------------------------|
D) -------------------------------------------------------------| 2x
A) -------------------------------------------------------------|
E) -------------------------------------------------------------|

Pre-Chorus
e) ------------------------------------------------|
B) 12-12-12-12-12-12-12-12-14-14-14-14-14-14-14-14-|
G) ------------------------------------------------|
D) ------------------------------------------------|
A) ------------------------------------------------|
E) ------------------------------------------------|

e) 14-14-14-14-14-14-14-14-14-14-14-14----14-14-14-|
B) ------------------------------------------------|
G) ------------------------------------------------|
D) ------------------------------------------------|
A) ------------------------------------------------|
E) ------------------------------------------------|

e) ------------------------------------------------|
B) 12-12-12-12-12-12-12-12-11-11-11-11-11-11-11-11-|
G) ------------------------------------------------|
D) ------------------------------------------------|
A) ------------------------------------------------|
E) ------------------------------------------------|

e) ------------------------------------------------|
B) 12-12-12-12-12-12-12-12-12-12-12-12----14-14-14-|
G) ------------------------------------------------|
D) ------------------------------------------------|
A) ------------------------------------------------|
E) ------------------------------------------------|

Chorus
e) 14--14-14-14-14-14---------------------|
B) -------------------12-12--12--12-12-12-|
G) ---------------------------------------|
D) ---------------------------------------|
A) ---------------------------------------|
E) ---------------------------------------|

e) 14--14-14-14-14-14-------------p-----p---|
B) -------------------14-14--14-16-14-12-11-|
G) -----------------------------------------|
D) -----------------------------------------|
A) -----------------------------------------|
E) -----------------------------------------|

e) --p-----p-----------p-----p---------------------|
B) 12-11-12-11---p---12-11-12-11---p---------------|
G) ------------13-11-------------13-11---p---------|
D) ------------------------------------13-11---p---|
A) ------------------------------------------14-13-|
E) ------------------------------------------------|

e) --p-----p-----------p-----p---------------------|
B) 12-11-12-11---p---12-11-12-11---p-----s---------|
G) ------------13-11-------------13-11-13-15-------|
D) ------------------------------------------------|
A) ------------------------------------------------|
E) ------------------------------------------------|

e) --p-----p-----------p-----p---------------------|
B) 12-11-12-11---p---12-11-12-11---p---------------|
G) ------------13-11-------------13-11---p---------|
D) ------------------------------------13-11---p---|
A) ------------------------------------------14-13-|
E) ------------------------------------------------|

e) --p-----p---------------------------------------|
B) 12-11-12-11---p-----s---------------------------|
G) ------------13-11-13-15-------------------------|
D) ------------------------------------------------|
A) ------------------------------------------------|
E) ------------------------------------------------|

Repeat Verse

Pre-Chorus II
e) -----------p-----------------------p--------h---|
B) ---------12-11-------------------12-11----11-12-|
G) --h---11-------11---p-----h---11-------11-------|
D) 11-13-------------13-11-11-13-------------------|
A) ------------------------------------------------|
E) ------------------------------------------------|

e) -----------p------------------------------------|
B) ---------12-11----------------------------------|
G) --h---11-------11---p-----h---11------h---------|
D) 11-13-------------13-11-11-13----13-11-13-9-----|
A) ------------------------------------------------|
E) ------------------------------------------------|

e) -----------p-----------------------p--------h---|
B) ---------12-11-------------------12-11----11-12-|
G) --h---11-------11---p-----h---11-------11-------|
D) 11-13-------------13-11-11-13-------------------|
A) ------------------------------------------------|
E) ------------------------------------------------|

e) -----------p------------------------------------|
B) ---------12-11------------------------------12--|
G) --h---11-------11---p-----h---11-----h---11-----|
D) 11-13-------------13-11-11-13---13-11-13--------|
A) ------------------------------------------------|
E) ------------------------------------------------|

Repeat Chorus

Bridge
e) ---------14-14-14-14-14---h---------14-14-14-14-14-|
B) 12-12-12----------------11-12-12-12----------------|
G) ---------------------------------------------------|
D) ---------------------------------------------------|
A) ---------------------------------------------------|
E) ---------------------------------------------------|

e) --h--p-------------------------|
B) 11-12-11-----------------------|
G) ---------11-------11-----------|
D) --------------13------13-------|
A) --------------------------14---| 2x ___ Repeat whole bridge 2x
E) -------------------------------|

When everything stops except the acoustic guitar and vocals, the lead guitar 
doesn't play anything.

Build-Up to Final Chorus
e) ------------------------------------|
B) 12-12-12-12-12-12-12-12-12---x-x-x--|
G) ------------------------------------|
D) ------------------------------------|
A) ------------------------------------|
E) ------------------------------------|

e) ---------------------------------------------------|
B) 12-12-12-12-12-12-12-12-12-11-11-11-11-11-11-11-11-|
G) ---------------------------------------------------|
D) ---------------------------------------------------|
A) ---------------------------------------------------|
E) ---------------------------------------------------|

e) ---------------------------------------------------|
B) 12-12-12-12-12-12-12-12-12-14-14-14-14-14-14-14-14-|
G) ---------------------------------------------------|
D) ---------------------------------------------------|
A) ---------------------------------------------------|
E) ---------------------------------------------------|

e) 11-11-11-11-11-11-11-11-12-12-12-12-12-12-12-12-|
B) ------------------------------------------------|
G) ------------------------------------------------|
D) ------------------------------------------------|
A) ------------------------------------------------|
E) ------------------------------------------------|

Repeat Chorus

Outro
e) --h-----h---14--11-------------------------------------------|
B) 12-14-12-14--------------------------------------------------|
G) -------------------------------------------------------------|
D) -------------------------------------------------------------| 
A) -------------------------------------------------------------|
E) -------------------------------------------------------------|

h = hammer on
p = pull off
s = slide

If you want to play the version on The Acoustic EP, just move everything down one fret. 
Please rate!
Tap to rate this tab
# A B C D E F G H I J K L M N O P Q R S T U V W X Y Z