Song name
# A B C D E F G H I J K L M N O P Q R S T U V W X Y Z

Sail By The Stars - Planes Trains And Automobiles tab

Artist: Sail By The Stars
Song: Planes, Trains & Automobiles
Album: Away We Go EP
Standard Tuning

Intro / Verse
e) 0--------0-------------0--------------|
B) 0--------2--------4----2----4----4----|
G) 1--------2--------4----2----4----4----|
D) 2--------2--------6----2----4----4----|
A) 2--------0--------6----0----2----2----|
E) 0-----------------4-------------------|

Verse Continued - PALM MUTE
e) ----------------------------------------------------------------|
B) ----------------------------------------------------------------|
G) ----------------------------------------------------------------|
D) 2-2-2-2-2-2-2-2-2-2-2-2-2-2-2-2-7-7-7-7-7-7-7-7-7-7-7-7-7-7-7-7-|
A) 2-2-2-2-2-2-2-2-2-2-2-2-2-2-2-2-7-7-7-7-7-7-7-7-7-7-7-7-7-7-7-7-|
E) 0-0-0-0-0-0-0-0-0-0-0-0-0-0-0-0-5-5-5-5-5-5-5-5-5-5-5-5-5-5-5-5-|

e) ----------------------------------------------------------|
B) ------------------------------------------------4--4------|
G) ------------------------------------------------4--4------|
D) 6-6-6-6-6-6-6-6-7-7-7-7-7-7-7-7-9-9-9-9-9-9-9-9-4--4------|
A) 6-6-6-6-6-6-6-6-7-7-7-7-7-7-7-7-9-9-9-9-9-9-9-9-2--2------|
E) 4-4-4-4-4-4-4-4-5-5-5-5-5-5-5-5-7-7-7-7-7-7-7-7-----------|

Chorus
e) 0-0-0-0-0-0-0-0-0-0-0-0-0-0-0-0--------------------------------|
B) 0-0-0-0-0-0-0-0-2-2-2-2-2-2-2-2-5-5-5-5-5-5-5-5-4-4-4-4-4-4-4-4|
G) 1-1-1-1-1-1-1-1-2-2-2-2-2-2-2-2-6-6-6-6-6-6-6-6-4-4-4-4-4-4-4-4|
D) 2-2-2-2-2-2-2-2-2-2-2-2-2-2-2-2-6-6-6-6-6-6-6-6-4-4-4-4-4-4-4-4| 4x
A) 2-2-2-2-2-2-2-2-0-0-0-0-0-0-0-0-4-4-4-4-4-4-4-4-2-2-2-2-2-2-2-2|
E) 0-0-0-0-0-0-0-0------------------------------------------------|

Pre-Verse
e) 0-----------------------------|
B) 0-----------------------------|
G) 1-----------------------------|
D) 2-----------------------------| Hold chord for 6 bars
A) 2-----------------------------|
E) 0-----------------------------|

e) --------------------------------|
B) 5-5-5-5-5-5-5-5-4-4-4-4-4-4-4-4-|
G) 6-6-6-6-6-6-6-6-4-4-4-4-4-4-4-4-|
D) 6-6-6-6-6-6-6-6-4-4-4-4-4-4-4-4-|
A) 4-4-4-4-4-4-4-4-2-2-2-2-2-2-2-2-|
E) --------------------------------|

Repeat verse
Repeat chorus 

Bridge
e) 0-0-0-0-0-0-0-0-0-0-0-0-0-0-0-0--------------------------------|
B) 0-0-0-0-0-0-0-0-2-2-2-2-2-2-2-2-5-5-5-5-5-5-5-5-4-4-4-4-4-4-4-4|
G) 1-1-1-1-1-1-1-1-2-2-2-2-2-2-2-2-6-6-6-6-6-6-6-6-4-4-4-4-4-4-4-4|
D) 2-2-2-2-2-2-2-2-2-2-2-2-2-2-2-2-6-6-6-6-6-6-6-6-4-4-4-4-4-4-4-4| 4x
A) 2-2-2-2-2-2-2-2-0-0-0-0-0-0-0-0-4-4-4-4-4-4-4-4-2-2-2-2-2-2-2-2|
E) 0-0-0-0-0-0-0-0------------------------------------------------|

e) 0--------0-------------------------|
B) 0--------2--------4----------------|
G) 1--------2--------4----------------|
D) 2--------2--------4----------------| 2x
A) 2--------0--------2----------------| 
E) 0----------------------------------|

Repeat Chorus 8x

End On:
e) 0-----------------------------|
B) 0-----------------------------|
G) 1-----------------------------|
D) 2-----------------------------|
A) 2-----------------------------|
E) 0-----------------------------|


Tap to rate this tab
# A B C D E F G H I J K L M N O P Q R S T U V W X Y Z