Song name
# A B C D E F G H I J K L M N O P Q R S T U V W X Y Z

Saint Motel - Butch tab

Saint Motel
Butch
ForPlay

Guitar 1
0:05
E-----------------------------------------------------|
B------10-1010------10-1010------10-1010------10-1010-|
G-9/11---------9/11---------9/11---------9/11---------|
D-----------------------------------------------------|
A-----------------------------------------------------|
E-----------------------------------------------------|

0:10
E------10-1010-------9--9-9------10-1010-------9--9-9-|
B------10-1010------10-1010------10-1010------10-1010-|
G-9/11---------9/11---------9/11---------9/11---------|
D-----------------------------------------------------|
A-----------------------------------------------------|
E-----------------------------------------------------|

0:15
E------10-1010-------9--9-9------10-1010--9-|
B------10-1010------10-1010------10-1010-10-|
G-9/11---------9/11---------9/11------------|
D-------------------------------------------|
A-------------------------------------------|
E-------------------------------------------|

0:20
E--------------------------------------------|
B--------------------------------------------|
G-7-7-7-77-77-7-7-77-77-7-7-77-77-7-7-77-77~-|
D-7-7-7-77-77-7-7-77-77-7-7-77-77-7-7-77-77~-|
A-5-5-5-55-55-5-5-55-55-5-5-55-55-5-5-55-55~-|
E--------------------------------------------|

0:42
E-------------------------------------------------------------
B-151515151515151414141414141412121212121212121010101010101010
G-------------------------------------------------------------|
D-------------------------------------------------------------|
A-------------------------------------------------------------|
E-------------------------------------------------------------|

0:44                           0:54
E------------------------------------------------------------|
B-10~-12-----10~-12------------10~-12-----10~-12-------------|
G-------11-9-------11-9-9-11---------11-9-------11-9-9~-11---|
D---------------------------9~----------------------------9~-|
A------------------------------------------------------------|
E------------------------------------------------------------|

1:01
E---------------------------------------------------------------
B-10101010101010121212121212121214141414141414141515151515151515
G---------------------------------------------------------------|
D---------------------------------------------------------------|
A---------------------------------------------------------------|
E---------------------------------------------------------------|

1:04
E---------------------------------|
B--7---7---8---8--10--12--14--15--|
G-10b-10b-11b-11b-13b-15b-17b-18--|b
D---------------------------------|
A---------------------------------|
E---------------------------------|

1:09
E------10-1010-------9--9-9------10-1010-------9--9-9-|
B------10-1010------10-1010------10-1010------10-1010-|
G-9/11---------9/11---------9/11---------9/11---------|
D-----------------------------------------------------|
A-----------------------------------------------------|
E-----------------------------------------------------|

1:14
E-------------------------------------|
B---------------------------------10~-|
G-7-7-7-77-77-7-7-77-77-7-7-77-77-----|
D-7-7-7-77-77-7-7-77-77-7-7-77-77-----|
A-5-5-5-55-55-5-5-55-55-5-5-55-55-----|
E-------------------------------------|

1:19                            1:29
E---------------------------------------------------------------|
B-10~-12-----10~-12-------------10~-12-----10~-12---------------|
G-------11-9-------11-9-9~-11---------11-9-------11-9---------9-|
D----------------------------9~-----------------------9-11-12---|
A---------------------------------------------------------------|
E---------------------------------------------------------------|

1:36
E------12-14---------------------------------|
B-12-14-------7---7---8---8--10--12--14--15--|
G------------10b-10b-11b-11b-13b-15b-17b-18--|b
D--------------------------------------------|
A--------------------------------------------|
E--------------------------------------------|

1:44
E-------------------------------------------------------------|
B------10-1010------10-1010------10-1010------10-1010---------|
G-9/11---------9/11---------9/11---------9/11---------7~---7~-|
D-----------------------------------------------------7~-7-7~-|
A-----------------------------------------------------5~-7-5~-|
E--------------------------------------------------------5----|

2:08                        2:19
E---------------------------------------------------------------|
B-----------------------------------------------------------10~-|
G-9/11~-16/11~-9/11~-16/11~-7-7-7-77-77-7-7-77-77-7-7-77-77-----|
D---------------------------7-7-7-77-77-7-7-77-77-7-7-77-77-----|
A---------------------------5-5-5-55-55-5-5-55-55-5-5-55-55-----|
E---------------------------------------------------------------|

2:25
E-------------------------------------------|
B-------------------------------------------|
G-7-7-7-77-77-7-7-77-77-7-7-77-77-7-7-77-77-|
D-7-7-7-77-77-7-7-77-77-7-7-77-77-7-7-77-77-|
A-5-5-5-55-55-5-5-55-55-5-5-55-55-5-5-55-55-|
E-------------------------------------------|

2:29
E-------------------------------------------|
B-------------------------------------------|
G-------------------------------------------|
D-5-5-5-55-55-5-5-55-55-5-5-55-55-5-5-55-55-|
A-5-5-5-55-55-5-5-55-55-5-5-55-55-5-5-55-55-|
E-3-3-3-33-33-3-3-33-33-3-3-33-33-3-3-33-33-|

2:34
E-------------------------------------------|
B-------------------------------------------|
G-------------------------------------------|
D-9-9-9-99-99-9-9-99-99-9-9-99-99-9-9-99-99-|
A-9-9-9-99-99-9-9-99-99-9-9-99-99-9-9-99-99-|
E-7-7-7-77-77-7-7-77-77-7-7-77-77-7-7-77-77-|

2:39
E-------------------------------------------|
B-------------------------------------------|
G-------------------------------------------|
D-5-5-5-55-55-5-5-55-55-5-5-55-55-5-5-55-55-|
A-5-5-5-55-55-5-5-55-55-5-5-55-55-5-5-55-55-|
E-3-3-3-33-33-3-3-33-33-3-3-33-33-3-3-33-33-|

Guitar 2 - shortened for sake of space
E---------------14-|
B-15p12-15p12-15---|
G------------------|

Solo
1:48
E-201915-201915-201915-201915-201915-201915-201915-201915-|
B---------------------------------------------------------|
G---------------------------------------------------------|

1:58
E-191715-191715-191715-191715-191715-191715-191715-191715-|
B---------------------------------------------------------|
G---------------------------------------------------------|

2:01
E-171515-171515-171515-171515-171515-171515-171515-171515-|
B---------------------------------------------------------|
G---------------------------------------------------------|

2:04
E-191715-191715-191715-191715-191715-191715-191715-191715-|
B---------------------------------------------------------|
G---------------------------------------------------------|

Multiple times between - 2:24 and 2:39
E-------------------
B-17171715-17171717b
G-------------------

2:39
E-------------------------12121212----------------1414141414141414-|
B-121212121414141415151515--------1212121214141414-----------------|
G------------------------------------------------------------------|

Questions?
Email at cory.roesch@yahoo.com
Tap to rate this tab
# A B C D E F G H I J K L M N O P Q R S T U V W X Y Z