Song name
# A B C D E F G H I J K L M N O P Q R S T U V W X Y Z

Saint Seiya - Cloth No Hokori Cloths Pride tab

Saint Seiya Lost Canvas Soundtrack
Cloth no hokori (Cloth's pride)

Tabs by BruceX
dark.heart@live.com.mx

Little song but is beautiful

==================================================

E|------0---1----------|
B|--3------------------|
G|---------------------|
D|---------------------|
A|---------------------|
E|---------------------|


E|--0--1--3------------|
B|---------------------|
G|---------------------|
D|---------------------|
A|---------------------|
E|---------------------|


E|--1--3--6-----8--7---|
B|---------------------|
G|---------------------|
D|---------------------|
A|---------------------|
E|---------------------|


E|--6--3--1------------|
B|---------------------|
G|---------------------|
D|---------------------|
A|---------------------|
E|---------------------|


E|--3--1--0--------------|
B|------------3---1------|
G|--------------------2--|
D|-----------------------|
A|-----------------------|
E|-----------------------|

===================================================

Gretings from mexico!
Saludos desde mexico!
Tap to rate this tab
 
# A B C D E F G H I J K L M N O P Q R S T U V W X Y Z