Song name
# A B C D E F G H I J K L M N O P Q R S T U V W X Y Z

Saint Seiya - Pegasus Fantasy tab

                                Pegasus Fantasy                                 


                                                                     Saint Seiya
Lead Guitar



                          W                                W               
              E   E   E   Q     E   E   E      E   E   E   Q     E   Q     
E||-------|--------------------------------|------------------------------|
B||-------|--------------------------------|------------------------------|
G||-------|----------12--10----------------|------------------------------|
D||-------|--10--13------------12----------|------10--13--12--------------|
A||-------|------------------------13--11--|---L----------------13--10----|
E||-------|--------------------------------|------------------------------|


               W                                       
   E   E   E   Q     E   E   E       W                 
---------------------------------|--------------------|
---------------------------------|--------------------|
----------12--10------------13~--|---L----------------|
--10--13------------12-----------|--------------------|
------------------------13-------|--------------------|
---------------------------------|--------------------|


               W                                W               
   E   E   E   Q     E   E   E      E   E   E   Q     E   Q     
--------------------------------|------------------------------|
--------------------------------|------------------------------|
----------12--10----------------|------------------------------|
--10--13------------12----------|------10--13--12--------------|
------------------------13--11--|---L----------------13--10----|
--------------------------------|------------------------------|


               W                                       
   E   E   E   Q     E   E   E       W                 
---------------------------------|--------------------|
---------------------------------|--------------------|
----------12--10------------13~--|---L----------------|
--10--13------------12-----------|--------------------|
------------------------13-------|--------------------|
---------------------------------|--------------------|


   Q.     E   E  E  E  E     W                    Q    E   Q    E  E  E   
--------------------------|--------------------|-------------------------|
-----------------------6--|--8~----------------|--L-------/8----6--6-----|
---L---------\5--7--8-----|--------------------|----------------------8--|
--------------------------|--------------------|-------------------------|
--------------------------|--------------------|-------------------------|
--------------------------|--------------------|-------------------------|


  E  Q    Q     Q.        H        E   E  E  E      Q    Q.      E  E   E    
-----------------------|-------------------------|--------------------------|
--6--------------------|-------------------------|--------------------------|
-----8----7~----L------|--L-----------\5--7--8~--|--L-----------\7--8--10~--|
-----------------------|-------------------------|--------------------------|
-----------------------|-------------------------|--------------------------|
-----------------------|-------------------------|--------------------------|


                                                           PH  
   Q    Q.      E   E   E       Q    Q.      E   E   T     S.  
----------------------------|---------------------------------|
----------------------------|---------------11------11h-<>12~-|
---L-----------\8--10--12~--|---L----L----------12------------|
----------------------------|---------------------------------|
----------------------------|---------------------------------|
----------------------------|---------------------------------|


   Q.     E   E  E  E  E     W                    Q    E   Q    E  E  E   
--------------------------|--------------------|-------------------------|
---L-------------------6--|--8~----------------|--L-------/8----6--6-----|
-------------\5--7--8-----|--------------------|----------------------8--|
--------------------------|--------------------|-------------------------|
--------------------------|--------------------|-------------------------|
--------------------------|--------------------|-------------------------|


  E  Q     S  S H            H        E  E  E  E     E  E  E  Q     E    Q     
--------------------------|-----------------------|---------------------------|
--6-----------------------|-----------------------|---------------------------|
-----8----10p-8-7~--------|--L-----------5--7--8--|--L--7--5--8~-------/12----|
--------------------------|-----------------------|---------------------------|
--------------------------|-----------------------|---------------------------|
--------------------------|-----------------------|---------------------------|


                                \1/                                         
   Q    S   S  E  S  S  E  E    E     W                   W                 
-----------------------------------|-------------------|-------------------|
-----------------------------------|-------------------|-------------------|
--10----8h-10p-8--7h-8p-7--5--<>5--|--L----------------|--L----------------|
-----------------------------------|-------------------|-------------------|
-----------------------------------|-------------------|-------------------|
-----------------------------------|-------------------|-------------------|


  Q    E  Q    E  E  E     S  S  Q    Q    E  E  E     Q    Q    S  S  E  Q     
------------------------|---------------------------|--6----4----3h-4p-3-------|
----------9----8--8--6--|--6h-8p-6----6-------------|---------------------6----|
--5----5----------------|------------------3--3--3--|--------------------------|
------------------------|---------------------------|--------------------------|
------------------------|---------------------------|--------------------------|
------------------------|---------------------------|--------------------------|


  S S S S S S S S S S S S E  E     S  S  E  E  Q    E  E  E   
--3-------4-------6-------4-----|----------------------------|
----4---4---4---4---4---4----4--|-------------------------6--|
------5-------5-------5---------|--7h-8p-7--5--8----7--5-----|
--------------------------------|----------------------------|
--------------------------------|----------------------------|
--------------------------------|----------------------------|


  E  E  E  Q     E  E  E      Q.      Q.      Q        H        Q     E   E   
--------------------------|-------------------------|------------------------|
--L--------6--------------|-------------------------|------------------------|
-----8--7-------\3--3--3--|--/4------/5------/7~----|--L-------------\8--10--|
--------------------------|-------------------------|------------------------|
--------------------------|-------------------------|------------------------|
--------------------------|-------------------------|------------------------|


   E   E  E   H         E      Q     S   S   E  Q    Q     
-------------15---------L--|------------------------------|
-------------18b--------L--|------------------------------|
--12--12-------------------|--12----10h-12p-10--8----7----|
---------------------------|------------------------------|
---------------------------|------------------------------|
---------------------------|------------------------------|


  Q.     Q.      T  T  T   T   T  T  T T  
----------------------11h-15p-11---------|
---------8---------13------------13------|
--5-------------12------------------12-8-|
-----------------------------------------|
-----------------------------------------|
-----------------------------------------|


  T T   T  T T T  T  T  T   T   T  T  T  T  T   T   Q     E  E   
----8h-11p-8-----------11h-15p-11----------11h-15s-20~----------|
--8----------8------13------------13----13----------------------|
---------------8-12------------------12-------------------7--8--|
----------------------------------------------------------------|
----------------------------------------------------------------|
----------------------------------------------------------------|


   E   E  E   H         E      Q    Q    S  S  E  E  E    
-------------10------------|-----------------------------|
-------------13b-----------|--11----9----8h-9p-8--6--8b--|
--10--10----------------5--|-----------------------------|
---------------------------|-----------------------------|
---------------------------|-----------------------------|
---------------------------|-----------------------------|


  Q    Q.      E  E   E     E   E  E   E  E  E  E   E   
-------------------------|-----------------------------|
--L----8~----------------|--8h--9--8h--9--8------------|
---------------7--8--10--|----------------------8--10--|
-------------------------|-----------------------------|
-------------------------|-----------------------------|
-------------------------|-----------------------------|


   E   E  E   H         E      Q     S   S   E  Q    Q     
-------------15---------L--|------------------------------|
-------------18b--------L--|------------------------------|
--12--12-------------------|--12----10h-12p-10--8----7----|
---------------------------|------------------------------|
---------------------------|------------------------------|
---------------------------|------------------------------|


                                  PH              
  Q.     Q.     Q       Q    E    Q     E  E  E   
---------------------|---------------------------|
---------8------L----|--9----8--<>8~-------------|
--5------------------|---------------------7--8--|
---------------------|---------------------------|
---------------------|---------------------------|
---------------------|---------------------------|


   E   E  E   Q      E  E  E      E   E  E   H          E   
-------------10------L--------|-------------10----------L--|
-------------13b-----L--------|-------------13b---------L--|
--10--10----------------7--8--|--10--10--------------------|
------------------------------|----------------------------|
------------------------------|----------------------------|
------------------------------|----------------------------|


  Q      Q     Q     Q       H         E   Q     E     H         E   Q     E   
--------------------------|-------------------------|-------------------------|
--------------------------|-------------------------|-------------------------|
-------/13----12----10----|--8~--------8--10----12--|--8~--------8--10----12--|
--------------------------|-------------------------|-------------------------|
--------------------------|-------------------------|-------------------------|
--------------------------|-------------------------|-------------------------|


   W                      W                      H          E   Q     E   
----------------------|---------------------|--\11~--------11--13----15--|
----------------------|---------------------|----------------------------|
--10s~----------------|--15~----------------|----------------------------|
----------------------|---------------------|----------------------------|
----------------------|---------------------|----------------------------|
----------------------|---------------------|----------------------------|


   H          E  S  E  S  E      Q.        S   S  H          
--11~--------11----13----15--|--13br------13p-11-13~--------|
-----------------------------|------------------------------|
-----------------------------|------------------------------|
-----------------------------|------------------------------|
-----------------------------|------------------------------|
-----------------------------|------------------------------|


    Q      T  T  T  T  S  Q.      S  S  S     H          H          
--/18~-------------13-15-16-------L-15-13-|--15b--------15~--------|
----------13-14-16------------------------|------------------------|
------------------------------------------|------------------------|
------------------------------------------|------------------------|
------------------------------------------|------------------------|
------------------------------------------|------------------------|


  E  E    E   E   S  S  S  S  S  S  S  S  
--L-----/16--16--15-16-13-16----16-15-16-|
-----------------------------16----------|
-----------------------------------------|
-----------------------------------------|
-----------------------------------------|
-----------------------------------------|


   S  S  S  S  S  S   Q     S S  S S  E   
-----16-15-16----16s-20----19---16---19--|
--13----------12-------------------------|
-----------------------------------------|
-----------------------------------------|
-----------------------------------------|
-----------------------------------------|


                      |--3--|  |--3--|  
   Q     E   Q.       S  S  S  S  S  S  
--20----19--19~---------------16-18-20-|
---------------------16-18-20----------|
---------------------------------------|
---------------------------------------|
---------------------------------------|
---------------------------------------|


   |--3--|  |--3--|  |--3--|  |--3--|  |--3--|  |--3--|  |--3--|  |--3--|  
   S  S  S  S  S  S  S  S  S  S  S  S  S  S  S  S  S  S  S  S  S  S  S  S  
--18-16-------------------15-16-18-16-15-------------------13-15-16-------|
--------20-18-16-15-16-18----------------18-16-15-13-15-16----------12-13-|
--------------------------------------------------------------------------|
--------------------------------------------------------------------------|
--------------------------------------------------------------------------|
--------------------------------------------------------------------------|


                              W                  
   |--3--|  |--3--|  |--3--|            |--3--|  
   S  S  S  S  S  S  S  S  S  H         S  S  S  
-----15-13-15-16-15-13--------------------------|
--15-------------------16-13-15--------13-15-16-|
------------------------------------------------|
------------------------------------------------|
------------------------------------------------|
------------------------------------------------|


   |--3--|  |--3--|  |--3--|  |--3--|  |--3--|  |--3--|  |--3--|  |--3--|  
   S  S  S  S  S  S  S  S  S  S  S  S  S  S  S  S  S  S  S  S  S  S  S  S  
--13-15-16-15-13----------------------------------------------------------|
-----------------16-15-13----------12-13-15-13-12-------------------------|
--------------------------12-13-15----------------15-13-12----------10-12-|
-----------------------------------------------------------10-12-13-------|
--------------------------------------------------------------------------|
--------------------------------------------------------------------------|


   |--3--|  |--3--| |--3--|  |--3-|  |--3-| |--3--| |--3-|  |--3--|  
   S  S  S  S  S  S S  S  S  S S  S  S S  S S  S  S S  S S  S  S  S  
--------------------------------------------------------------------|
--------------------------------------------------------------------|
--13-12-10----------------------------------------------------------|
-----------13-12-10----------------------------------------------10-|
--------------------8-10-11-10-8------------------------------10----|
---------------------------------11-10-8-10-8-10-11-8-10-8-11-------|


  |-3-| |--3-|  |--3--|                              
  S S S S S  S  S  S  S  S  S  S  S  S  S  S  S  E   
------8-----------------11-15-11----------11-15-11--|
----8---8------------13----------13----13-----------|
--8-------8-------12----------------12--------------|
------------10-13-----------------------------------|
----------------------------------------------------|
----------------------------------------------------|


                                        |--3--|  |--3--|                      
   E  S  E  S  E   S   S   Q     E      S  S  S  S  S  S  Q      Q.      S S  
--16----15----16--15h-16p-15~-------|--13-15-16-13-15-16-20b----20~------L---|
------------------------------------|----------------------------------------|
------------------------------------|----------------------------------------|
------------------------------------|----------------------------------------|
------------------------------------|----------------------------------------|
------------------------------------|----------------------------------------|


   |--3--|  |--3--|  |--3--|  |--3--|           |--3--|  
   S  S  S  S  S  S  S  S  S  S  S  S  Q.       S  S  S  
--20-18-16----16-18-20-18-16----16-18-19~---------------|
-----------20----------------20----------------16-18-20-|
--------------------------------------------------------|
--------------------------------------------------------|
--------------------------------------------------------|
--------------------------------------------------------|


   S  S  S  S  S  S  S  S  S  S  S  S  S  S  S  S  
--20-16-19-15-18-14-17-13-16-13-------16-13-------|
--------------------------------16-13-------16-15-|
--------------------------------------------------|
--------------------------------------------------|
--------------------------------------------------|
--------------------------------------------------|


   S  S  S  S  S  S   Q.     S  E.    
--16-15-13---------------------------|
-----------16-13-15~--L--------11b---|
-------------------------------------|
-------------------------------------|
-------------------------------------|
-------------------------------------|


                                                              W         
   E  E   S  S  S S  S  S  S  S  S  S  E      Q.      S  S    H         
------8--11p-8----8-11p-8------------------|---------------------------|
---L-----------11---------11p-8-11p-8------|---------------------------|
--------------------------------------10b--|--L------10p-8-<>10--------|
-------------------------------------------|---------------------------|
-------------------------------------------|---------------------------|
-------------------------------------------|---------------------------|


  Q    E  Q    E  E  E     S  S  Q    Q    E  E  E     Q    Q    S  S  E  Q     
------------------------|---------------------------|--6----4----3h-4p-3-------|
----------9----8--8--6--|--6h-8p-6----6-------------|---------------------6----|
--5----5----------------|------------------3--3--3--|--------------------------|
------------------------|---------------------------|--------------------------|
------------------------|---------------------------|--------------------------|
------------------------|---------------------------|--------------------------|


  S S S S S S S S S S S S E  E     S  S  E  E  Q    E  E  E   
--3-------4-------6-------4-----|----------------------------|
----4---4---4---4---4---4----4--|-------------------------6--|
------5-------5-------5---------|--7h-8p-7--5--8----7--5-----|
--------------------------------|----------------------------|
--------------------------------|----------------------------|
--------------------------------|----------------------------|


  E  E  E  Q     E  E  E      Q.      Q.      Q        H        Q     E   E   
--------------------------|-------------------------|------------------------|
--L--------6--------------|-------------------------|------------------------|
-----8--7-------\3--3--3--|--/4------/5------/7~----|--L-------------\8--10--|
--------------------------|-------------------------|------------------------|
--------------------------|-------------------------|------------------------|
--------------------------|-------------------------|------------------------|


   E   E  E   H         E      Q     S   S   E  Q    Q     
-------------15---------L--|------------------------------|
-------------18b--------L--|------------------------------|
--12--12-------------------|--12----10h-12p-10--8----7----|
---------------------------|------------------------------|
---------------------------|------------------------------|
---------------------------|------------------------------|


  Q.     Q.      T  T  T   T   T  T  T T  
----------------------11h-15p-11---------|
---------8---------13------------13------|
--5-------------12------------------12-8-|
-----------------------------------------|
-----------------------------------------|
-----------------------------------------|


  T T   T  T T T  T  T  T   T   T  T  T  T  T   T   Q     E  E   
----8h-11p-8-----------11h-15p-11----------11h-15s-20~----------|
--8----------8------13------------13----13----------------------|
---------------8-12------------------12-------------------7--8--|
----------------------------------------------------------------|
----------------------------------------------------------------|
----------------------------------------------------------------|


   E   E  E   H         E      Q    Q    S  S  E  E  E    
-------------10------------|-----------------------------|
-------------13b-----------|--11----9----8h-9p-8--6--8b--|
--10--10----------------5--|-----------------------------|
---------------------------|-----------------------------|
---------------------------|-----------------------------|
---------------------------|-----------------------------|


  Q    Q.      E  E   E     E   E  E   E  E  E  E   E   
-------------------------|-----------------------------|
--L----8~----------------|--8h--9--8h--9--8------------|
---------------7--8--10--|----------------------8--10--|
-------------------------|-----------------------------|
-------------------------|-----------------------------|
-------------------------|-----------------------------|


   E   E  E   H         E      Q     S   S   E  Q    Q     
-------------15---------L--|------------------------------|
-------------18b--------L--|------------------------------|
--12--12-------------------|--12----10h-12p-10--8----7----|
---------------------------|------------------------------|
---------------------------|------------------------------|
---------------------------|------------------------------|


                                  PH              
  Q.     Q.     Q       Q    E    Q     E  E  E   
---------------------|---------------------------|
---------8------L----|--9----8--<>8~-------------|
--5------------------|---------------------7--8--|
---------------------|---------------------------|
---------------------|---------------------------|
---------------------|---------------------------|


   E   E  E   Q      E  E  E      E   E  E   H          E   
-------------10------L--------|-------------10----------L--|
-------------13b-----L--------|-------------13b---------L--|
--10--10----------------7--8--|--10--10--------------------|
------------------------------|----------------------------|
------------------------------|----------------------------|
------------------------------|----------------------------|


                                                    |---3--|               
  Q      Q     Q     Q        S  S S S  S S S S   S S   S  S S S  S S   S  
--------------------------|--11p-8------------8h-11-8h-11p-8--------8h-11-|
--------------------------|--------8--------8----------------8------------|
-------/13----12----10----|----------8----8--------------------8----------|
--------------------------|------------10------------------------10-------|
--------------------------|-----------------------------------------------|
--------------------------|-----------------------------------------------|


  |---3--| |--3-|       |--3-|       |--3-|       |--3-|  
  S   S  S S S  S  S  S S S  S  S  S S S  S  S  S S S  S  
--8h-11p-8--------10p-8--------11p-8--------13p-8--------|
-----------8------------8------------8------------8------|
-------------8------------8------------8------------8----|
---------------10-----------10-----------10-----------10-|
---------------------------------------------------------|
---------------------------------------------------------|


                        |---3--|              
   S  S S S S S S S   S S   S  S S S S S   S  
--10p-6-----------6h-10-6h-10p-6-------6h-10-|
--------6-------6----------------6-----------|


----------7---7--------------------7---------|
------------8------------------------8-------|
---------------------------------------------|
---------------------------------------------|


  |---3--| |-3-|      |-3-|       |-3-|      |-3-|  
  S   S  S S S S S  S S S S  S  S S S S S  S S S S  
--6h-10p-6-------8p-6-------10p-6-------8p-6-------|
-----------6----------6-----------6----------6-----|
-------------7----------7-----------7----------7---|
---------------8----------8-----------8----------8-|
---------------------------------------------------|
---------------------------------------------------|


                      |--3--|             
  S  S S S S S S S  S S  S  S S S S S  S  
--8p-4-----------4h-8-4h-8p-4-------4h-8-|
-------4-------4--------------4----------|
---------5---5------------------5--------|
-----------6----------------------6------|
-----------------------------------------|
-----------------------------------------|


  |--3--| |-3-|      |-3-|      |-3-|      |-3-|  
  S  S  S S S S S  S S S S S  S S S S S  S S S S  
--4h-8p-4-------6p-4-------8p-4-------6p-4-------|
----------4----------4----------4----------4-----|
------------5----------5----------5----------5---|
--------------6----------6----------6----------6-|
-------------------------------------------------|
-------------------------------------------------|


                        |---3--|              
   S  S S S S S S S   S S   S  S S S S S   S  
--10p-6-----------6h-10-6h-10p-6-------6h-10-|
--------6-------6----------------6-----------|
----------7---7--------------------7---------|
------------8------------------------8-------|
---------------------------------------------|
---------------------------------------------|


  |---3--| |-3-|      |-3-|       |-3-|      |-3-|  
  S   S  S S S S S  S S S S  S  S S S S S  S S S S  
--6h-10p-6-------8p-6-------10p-6-------8p-6-------|
-----------6----------6-----------6----------6-----|
-------------7----------7-----------7----------7---|
---------------8----------8-----------8----------8-|
---------------------------------------------------|
---------------------------------------------------|


   S  S S S  S S S S   S   S   S  S  S  S  S   S  
--11p-8------------8h-11s-15p-11----------11h-15-|
--------8--------8---------------13----13--------|
----------8----8--------------------12-----------|
------------10-----------------------------------|
-------------------------------------------------|
-------------------------------------------------|


   T                          T                     
   S   S   S  S  S  S  S   S  S   S   S  S  E   E   
--16p-15p-11----------11h-15-18p-15p-11------------|
-------------13----13-------------------13---------|
----------------12-------------------------12\-----|
---------------------------------------------------|
---------------------------------------------------|
---------------------------------------------------|


   S  S S S S S S S   S   S   S  S  S  S  S   S  
--10p-6-----------6h-10s-13p-10----------10h-13-|
--------6-------6---------------11----11--------|
----------7---7--------------------10-----------|
------------8-----------------------------------|
------------------------------------------------|
------------------------------------------------|


   T                          T                     
   S   S   S  S  S  S  S   S  S   S   S  S  E   E   
--15p-13p-10----------10h-13-18p-13p-10------------|
-------------11----11-------------------11---------|
----------------10-------------------------10\-----|
---------------------------------------------------|
---------------------------------------------------|
---------------------------------------------------|


  S  S S S S S S S  S   S  S S S S S   S  
--8p-4-----------4h-8s-11p-8-------8h-11-|
-------4-------4-------------9---9-------|
---------5---5-----------------8---------|
-----------6-----------------------------|
-----------------------------------------|
-----------------------------------------|


   T                     T                  
   S   S  S S S S S   S  S   S  S S E   E   
--13p-11p-8-------8h-11-16p-11p-8----------|
------------9---9-----------------9--------|
--------------8---------------------8\-----|
-------------------------------------------|
-------------------------------------------|
-------------------------------------------|


   S  S S S S S S S   S   S   S  S  S  S  S   S  
--10p-6-----------6h-10s-13p-10----------10h-13-|
--------6-------6---------------11----11--------|
----------7---7--------------------10-----------|
------------8-----------------------------------|
------------------------------------------------|
------------------------------------------------|


   T                          T                     
   S   S   S  S  S  S  S   S  S   S   S  S  E   E   
--15p-13p-10----------10h-13-18p-13p-10------------|
-------------11----11-------------------11---------|
----------------10-------------------------10\-----|
---------------------------------------------------|
---------------------------------------------------|
---------------------------------------------------|


   H        Q     S   S  S  S    H.            E.   S  
------------------------------|-----------------------|
------------------------------|--------------------/8-|
--\8--------8~----8h-10p-8p-7-|--8~-------------------|
------------------------------|-----------------------|
------------------------------|-----------------------|
------------------------------|-----------------------|


  S  S  S  S S  S  S S  S  S S  S  S  S  S  S     S S  S  S H         E  S  S  
-----------------------------------------------|------------------------------|
--8h-9p-8p-6-----------------------------------|------------------------------|
-------------8p-7p-5-8p-7p-5-------------------|------------------------------|
-----------------------------8p-6p-5h-6h-8p-6h-|--5----------------------8-10-|
-----------------------------------------------|----8p-6p-5-------------------|
-----------------------------------------------|------------6~----------------|


  Artificial Harmonic                                                  
                                                     W                 
  E                    H.            E     E  E  E   Q      E  E   E   
----------------------------------------|-------------------8-----10--|
-------------------------------------8--|-----------11br--------------|
--8-------------------------------------|-----8-----------------------|
----------------------10~---------------|-----------------------------|
----------------------------------------|-----------------------------|
----------------------------------------|-----------------------------|


   H          E   E   E   E      E   Q    S S H          
--11~-------------8-------8--|-------8----6---6~--------|
-------------11b-----11b-----|--11b---------8-----------|
-----------------------------|--------------------------|
-----------------------------|--------------------------|
-----------------------------|--------------------------|
-----------------------------|--------------------------|


   E   E   E   E   H             E    E   E   E   E   E   E   E   
--15--15--13--13--15~--------|---L--/15--15--20--20----------15--|
-----------------------------|-----------------------13--13------|
-----------------------------|-----------------------------------|
-----------------------------|-----------------------------------|
-----------------------------|-----------------------------------|
-----------------------------|-----------------------------------|


   E   E   E   E   E   E   E   E      S   S   S   S  S   S   S   S  H          
--15------------------------------|-------------------------------------------|
--------------16--16--11--11--13--|--15h-16p-15p-13-15h-16p-15p-13-15~--------|
------12--12----------------------|-------------------------------------------|
----------------------------------|-------------------------------------------|
----------------------------------|-------------------------------------------|
----------------------------------|-------------------------------------------|


                W                                                  
   E   Q.       Q.      E     S.  S  S  S  S  S. S E.   E  T E  T  
---------------------------|--------------------------------------|
------15b------13----------|--------------------------------------|
--13-------------------10--|--8-----------------------------------|
---------------------------|-----10p-9p-8-------------------------|
---------------------------|--------------10p-9p-8-L---------8--L-|
---------------------------|---------------------------11--L------|


             \1/         \1/                                            
   E  Q.     H           Q.      H         E     Q    E  Q    E  E  E   
----------------------|-----------------------|------------------------|
----------------------|-----------------------|----------9----8--8--6--|
----------------------|---------12~-----------|--5----5----------------|
----------------------|-----------------------|------------------------|
----------------------|-----------------------|------------------------|
--11--8------L--------|--L--------------------|------------------------|


  S  S  Q    Q    E  E  E     Q    Q    S  S  E  Q     
---------------------------|--6----4----3h-4p-3-------|
--6h-8p-6----6-------------|---------------------6----|
------------------3--3--3--|--------------------------|
---------------------------|--------------------------|
---------------------------|--------------------------|
---------------------------|--------------------------|


  S S S S S S S S S S S S E  E     S  S  E  E  Q    E  E  E   
--3-------4-------6-------4-----|----------------------------|
----4---4---4---4---4---4----4--|-------------------------6--|
------5-------5-------5---------|--7h-8p-7--5--8----7--5-----|
--------------------------------|----------------------------|
--------------------------------|----------------------------|
--------------------------------|----------------------------|


  E  E  E  Q     E  E  E     Q.     Q.      Q        W                 
--------------------------|-----------------------|-------------------|
--L--------6--------------|-----------------------|-------------------|
-----8--7-------\3--3--3--|--4------5------/7~----|--L----------------|
--------------------------|-----------------------|-------------------|
--------------------------|-----------------------|-------------------|
--------------------------|-----------------------|-------------------|


  Q.      Q.       Q       H        Q     E   E      E   E  E   H         E   
------------------------|------------------------|-------------15---------L--|
------------------------|------------------------|-------------18b--------L--|
--7------/8------/10----|--L-------------\8--10--|--12--12-------------------|
------------------------|------------------------|---------------------------|
--5------/6-------/8----|--L---------------------|---------------------------|
------------------------|------------------------|---------------------------|


   Q     S   S   E  Q    Q       Q.     Q.      T  T  T   T   T  T  T T  
------------------------------|----------------------11h-15p-11---------|
------------------------------|---------8---------13------------13------|
--12----10h-12p-10--8----7----|--5-------------12------------------12-8-|
------------------------------|-----------------------------------------|
------------------------------|-----------------------------------------|
------------------------------|-----------------------------------------|


  T T   T  T T T  T  T  T   T   T  T  T  T  T   T   Q     E  E   
----8h-11p-8-----------11h-15p-11----------11h-15s-20~----------|
--8----------8------13------------13----13----------------------|
---------------8-12------------------12-------------------7--8--|
----------------------------------------------------------------|
----------------------------------------------------------------|
----------------------------------------------------------------|


   E   E   Q.     Q    E      Q    Q    S  S  E  E  E    
--------------------------|-----------------------------|
--------------------------|--11----9----8h-9p-8--6--8b--|
--10--10~--L-----------5--|-----------------------------|
--------------------------|-----------------------------|
--------------------------|-----------------------------|
--------------------------|-----------------------------|


  Q    Q.      E  E   E     E   E  E   E  E  E  E   E   
-------------------------|-----------------------------|
--L----8~----------------|--8h--9--8h--9--8------------|
---------------7--8--10--|----------------------8--10--|
-------------------------|-----------------------------|
-------------------------|-----------------------------|
-------------------------|-----------------------------|


   E   E  E   H         E      Q     S   S   E  Q    Q     
-------------15---------L--|------------------------------|
-------------18b--------L--|------------------------------|
--12--12-------------------|--12----10h-12p-10--8----7----|
---------------------------|------------------------------|
---------------------------|------------------------------|
---------------------------|------------------------------|


                                  PH              
  Q.     Q.     Q       Q    E    Q     E  E  E   
---------------------|---------------------------|
---------8------L----|--9----8--<>8~-------------|
--5------------------|---------------------7--8--|
---------------------|---------------------------|
---------------------|---------------------------|
---------------------|---------------------------|


   E   E  E   Q      E  E  E      E   E  E   H          E   
-------------10------L--------|-------------10----------L--|
-------------13b-----L--------|-------------13b---------L--|
--10--10----------------7--8--|--10--10--------------------|
------------------------------|----------------------------|
------------------------------|----------------------------|
------------------------------|----------------------------|


  Q      Q     Q      Q        Q.       E   E  S  E  S  E   
---------------------------|-------------------------------|
---------------------------|--13~----------13----15----16--|
-------/13----12----/12----|-----------12------------------|
---------------------------|-------------------------------|
---------------------------|-------------------------------|
---------------------------|-------------------------------|


   Q.       S   S  Q     S  S   S   S     E  S  E  S  E   Q.       S  S  
--------------------------------------|---------------------------10-13-|
--18b------18p-16-18~----L-16h-18p-16-|--15----13----12--13~------------|
--------------------------------------|---------------------------------|
--------------------------------------|---------------------------------|
--------------------------------------|---------------------------------|
--------------------------------------|---------------------------------|


                     |--3--|                    
   S  S  S  S  S  S  S  S  S  Q     S  S  S  S  
--16-15-13----------------------------------15-|
-----------15-12-------------------------16----|
-----------------13-11-10-------------17-------|
--------------------------12-10~---------------|
-----------------------------------------------|
-----------------------------------------------|


   S  S  S  S  S  S  S  S  S  S  S  S  S  S  S  S  
--20-15----------15-19-15-15-11----------11-15-11-|
--------16----16----------------13----13----------|
-----------17----------------------12-------------|
--------------------------------------------------|
--------------------------------------------------|
--------------------------------------------------|


   S S S S S S  S   Q    E   T  T  T  T  S     Q.      S  S  H            
--11-8-------8-11s-15----------------13-15-|--16------15-13-15br~--------|
-------8---8----------------13-14-16-------|-----------------------------|
---------8---------------------------------|-----------------------------|
-------------------------------------------|-----------------------------|
-------------------------------------------|-----------------------------|
-------------------------------------------|-----------------------------|


  W                 
--L----------------|
-------------------|
-------------------|
-------------------|
-------------------|
-------------------|


   |--3--|  |--3--|  |--3--|  |--3--|  |--3--|  |--3--|  3       
   S  S  S  S  S  S  S  S  S  S  S  S  S  S  S  S  S  S  Q.      
--16-15-13----------------13-15-16-15-13------------------------|
-----------16-15-13-15-16----------------16-15-13-12-13~-L------|
----------------------------------------------------------------|
----------------------------------------------------------------|
----------------------------------------------------------------|
----------------------------------------------------------------|


  W                  
-------------------||
--L----------------||
-------------------||
-------------------||
-------------------||
-------------------||




Duration Legend
---------------
W - whole
H - half
Q - quarter
E - 8th
S - 16th
T - 32nd
X - 64th
. - note dotted
|-n-|  - n-tuplets


Tablature Legend
----------------
L - tied note
x - dead note
g - grace note
(n) - ghost note
> - accentuded note
NH - natural harmonic
AH - artificial harmonic
TH - tapped harmonic
SH - semi harmonic
PH - pitch harmonic
h - hammer on
p - pull off
b - bend
br - bendRelease
pb - preBend
pbr - preBendRelease
brb - bendReleaseBend
\n/ - tremolo bar dip
\n - tremolo bar dive
-/n - tremolo bar Release up
/n\ - tremolo bar inverted dip
/n - tremolo bar return
-\n - tremolo bar Release down
S - shift slide
s - legato slide
/ -  slide into from below or out of upwards
\ -  slide into from above or out of downwards
~ - vibrato
W - wide vibrato
tr - trill
TP - tremolo picking
T - tapping
S - slap
P - pop
< - fade in
^ - brush up
v - brush down
Tap to rate this tab
 
# A B C D E F G H I J K L M N O P Q R S T U V W X Y Z