Song name
# A B C D E F G H I J K L M N O P Q R S T U V W X Y Z

Saint Vitus - Trail Of Pestilence tab

-------------------------------------------------------------------------------
			     Trail Of Pestilence - Saint Vitus
-------------------------------------------------------------------------------
Tabbed by: Blackcrowned87
Email: Blackcrowned87@hotmail.com

Tuning: Half Step Down


  Riff 1
e|---------------------------------------------------------------------------|
B|---------------------------------------------------------------------------|
G|---------------------------------------------------------------------------|
D|--7---10-10----------------------------------------------------------------|
A|--7---10-10----------------------------------------------------------------|
E|--5---8--8----12-13-12--10~------------------------------------------------|

  Riff 2
e|---------------------------------------------------------------------------|
B|---------------------------------------------------------------------------|
G|---------------------------------------------------------------------------|
D|--7---10-10-------------Trill----------------------------------------------|
A|--7---10-10----------------------------------------------------------------|
E|--5---8--8----12-13-12--10(11)---------------------------------------------|

  Riff 3
e|---------------------------------------------------------------------------|
B|---------------------------------------------------------------------------|
G|---------------------------------------------------------------------------|
D|--7---10-10----------------------------------------------------------------|
A|--7---10-10----------------------------------------------------------------|
E|--5---8--8-----------------------------------------------------------------|

  Riff 4
e|---------------------------------------------------------------------------|
B|---------------------------------------------------------------------------|
G|---------------------------------------------------------------------------|
D|--12---15-15---------------------------------------------------------------|
A|--12---15-15---------------------------------------------------------------|
E|--10---13-13---------------------------------------------------------------|


Riff 1 (5x)
Riff 2 (1x)
Riff 3 (4x)
Riff 4 (2x)
Riff 3 (2x)
Riff 1 (3x)
Riff 2 (1x)
Riff 3 (4x)
Riff 4 (2x)
Riff 3 (2x)
Riff 1 (3x)
Riff 2 (1x)
Riff 3 (4x) (Solo)
Riff 4 (2x)
Riff 3 (2x)
Riff 1 (7x)
Riff 2 (1x)
Riff 3 (4x)
Riff 4 (2x)
Riff 3 (2x)
Riff 1 (3x)
Riff 2 (1x) 
Riff 3 (12x) (solo 2)


| /  slide up
| \  slide down
| h  hammer-on
| p  pull-off
| ~  vibrato
| +  harmonic
| x  Mute note
===============================================================================
Tap to rate this tab
# A B C D E F G H I J K L M N O P Q R S T U V W X Y Z