Song name
# A B C D E F G H I J K L M N O P Q R S T U V W X Y Z

Saint - Plan Ii tab

 Song:Plan II	
 http://www.angelfire.com/nj2/saint777

  Band:Saint
  CD:Warriors Of The Son
  Copyright:c
  Tabbed by Ed Morones
   -Play tab in sequence unless noted-
   -Tune down 1/2 step-
  

    INTRO:              RIFF 1 play 2x's               RIFF 1b
  e-------------------|-------------------------------|-harm w/trem--|
  B-------------------|-------------------------------|-(3)^^^^^^^^^-|
  G--2-2-2-2---2-2--5-|--2----------5----2------------|--2-----------|
  D--2-2-2-2---2-2--5-|--2--------3-5-5--2--------3-5-|--2-----------|
  A--0-0-0-0---0-0--3-|--0--3-0-3-3-3-5--0--3-0-3-3-5-|--0-----------|
  E-------------------|-----------1---3-----------1-3-|--------------|
   -VERSE play RIFF 1-
   
   PRE-CHORUS:                 CHORUS:
    RIFF 2 play 2x's            RIFF 3 play 4x's      4th time
  e---------------------------|----------------------|-----|
  B---------------------------|----------------------|-----|
  G*---------------------5---*|-----------------5----|--5--|
  D*---------------------5-5-*|--2-2--2-2--3-3--5-5--|--5--|
  A--+++++++++++++++++++-3-5--|--0-0--0-0--3-3--3-5--|--3--|
  E------------------------3--|------------1-1--3-3--|--3--|
    -VERSE play RIFF 1 4x's-
    -Play RIFF 2 2x's-
    -CHORUS play RIFF 3 4x's
   
   SOLO SECTION:
    -Play RIFF 1 2x's-
    RIFF 4 play 4x's     4th time
  e-------------------|-------|
  B-------------------|-------|
  G--2-2--------------|-------|
  D--2-2--5-5----5----|---5---|
  A--0-0--3-3--3-3-5--|---3---|
  E------------1---3--|-------|
    -Play VERSE RIFF 1 4x's-
    -Then RIFF 2 2x's-
    -CHORUS RIFF 3 8x's-
    -Then RIFF 4 8x's-
    -END with RIFF 1 2x's-


  Any Q's or com's email Ed at 
  5150rocker@sbcglobal.net

  
  Band:Saint
  CD:Warriors Of The Son
  Copyright:c
  Tabbed by Ed Morones
   -Play tab in sequence unless noted-
   -Tune down 1/2 step-
  

    INTRO:              RIFF 1 play 2x's               RIFF 1b
  e-------------------|-------------------------------|-harm w/trem--|
  B-------------------|-------------------------------|-(3)^^^^^^^^^-|
  G--2-2-2-2---2-2--5-|--2----------5----2------------|--2-----------|
  D--2-2-2-2---2-2--5-|--2--------3-5-5--2--------3-5-|--2-----------|
  A--0-0-0-0---0-0--3-|--0--3-0-3-3-3-5--0--3-0-3-3-5-|--0-----------|
  E-------------------|-----------1---3-----------1-3-|--------------|
   -VERSE play RIFF 1-
   
   PRE-CHORUS:                 CHORUS:
    RIFF 2 play 2x's            RIFF 3 play 4x's      4th time
  e---------------------------|----------------------|-----|
  B---------------------------|----------------------|-----|
  G*---------------------5---*|-----------------5----|--5--|
  D*---------------------5-5-*|--2-2--2-2--3-3--5-5--|--5--|
  A--+++++++++++++++++++-3-5--|--0-0--0-0--3-3--3-5--|--3--|
  E------------------------3--|------------1-1--3-3--|--3--|
    -VERSE play RIFF 1 4x's-
    -Play RIFF 2 2x's-
    -CHORUS play RIFF 3 4x's
   
   SOLO SECTION:
    -Play RIFF 1 2x's-
    RIFF 4 play 4x's     4th time
  e-------------------|-------|
  B-------------------|-------|
  G--2-2--------------|-------|
  D--2-2--5-5----5----|---5---|
  A--0-0--3-3--3-3-5--|---3---|
  E------------1---3--|-------|
    -Play VERSE RIFF 1 4x's-
    -Then RIFF 2 2x's-
    -CHORUS RIFF 3 8x's-
    -Then RIFF 4 8x's-
    -END with RIFF 1 2x's-


  Any Q's or com's email Ed at 
  5150rocker@sbcglobal.net

  
Tap to rate this tab
# A B C D E F G H I J K L M N O P Q R S T U V W X Y Z