Song name
# A B C D E F G H I J K L M N O P Q R S T U V W X Y Z

Sainthood Reps - Condor tab

Drop D Tuning

e|-----------------------------------|
B|-----------------------------------|
G|-----------------------------------|
D|-----6---6-------6-------6---6/7---|
A|---4---4---4---4---4---4---4-------|
D|-0-----------0-------0-------------|


e|-----------------------------------|
B|-----------------------------------|
G|-----------------------------------|
D|-----7---7-------7-------7---7/6---|
A|---4---4---4---4---4---4---4-------|
D|-4-----------4-------4-------------|


http://sainthoodreps.com/
Tap to rate this tab
 
# A B C D E F G H I J K L M N O P Q R S T U V W X Y Z