Song name
# A B C D E F G H I J K L M N O P Q R S T U V W X Y Z

Saintins Son - Life tab

#----------------------------------PLEASE NOTE---------------------------------#
#This file is the author's own work and represents their interpretation of the #
#song. You may only use this file for private study, scholarship, or research. #
#------------------------------------------------------------------------------#


This is the song life and it is realy easy
use a down up down down struming

d- strum down
u- strum up


  d  u d  d u d d  d  u d  d u d d
|-9--9-9--7-7-7-7--5--5-5--7-7-7-7--|
|-8--8-8--7-7-7-7--5--5-5--7-7-7-7--|
|-9--9-9--7-7-7-7--5--5-5--7-7-7-7--|
|-9--9-9--7-7-7-7--5--5-5--7-7-7-7--|
|-7--7-7--5-5-5-5--3--3-3--5-5-5-5--|
|-----------------------------------|

repeat the same pattern
|-9--9-9--7-7-7-7--5--5-5--7-7-7-7--|
|-8--8-8--7-7-7-7--5--5-5--7-7-7-7--|
|-9--9-9--7-7-7-7--5--5-5--7-7-7-7--|
|-9--9-9--7-7-7-7--5--5-5--7-7-7-7--|
|-7--7-7--5-5-5-5--3--3-3--5-5-5-5--|
|-----------------------------------|


|-9--9-9--7-7-7-7--5--5-5--7-7-7-7--|
|-8--8-8--7-7-7-7--5--5-5--7-7-7-7--|
|-9--9-9--7-7-7-7--5--5-5--7-7-7-7--|
|-9--9-9--7-7-7-7--5--5-5--7-7-7-7--|
|-7--7-7--5-5-5-5--3--3-3--5-5-5-5--|
|-----------------------------------|

  d  u d  d d d  d u d   d d d
|-------------------------------|
|-9--9-9---------7--7-7---------|
|-9--9-9---------7--7-7---------|the chours is not hard eather
|-9--9-9---------7--7-7---------|
|-7--7-7--9-7-9--5--5-5--7-5-7--|
|---------7-7-7----------5-5-5--|

repeat same pattern
|-------------------------------|
|-9--9-9---------7--7-7---------|
|-9--9-9---------7--7-7---------|
|-9--9-9---------7--7-7---------|
|-7--7-7--9-7-9--5--5-5--7-5-7--|
|---------7-7-7----------5-5-5--|

--------------------------------------------------------------------------------
Legend
------

h = hammer-on; p = pull-off; b = bend; r = bend release; / = slide up/down; [5] = nat. harmonic; <5> = 
harmonic; ~ = vibrato; tr = trill; T = tap; TP = trem. picking; PM = palm muting; | = bar; || = double bar; 
= repeat start; *|| = repeat end; *| = double bar (end); : = bar (freetime); d = tremolo bar dive; u = tremolo bar up; = = hold (bend or tremolo bar)
--------------------------------------------------------------------------------

** Generated using Power Tab Editor by Brad Larsen: The Official
Tap to rate this tab
 
# A B C D E F G H I J K L M N O P Q R S T U V W X Y Z