Song name
# A B C D E F G H I J K L M N O P Q R S T U V W X Y Z

Saints - Repulsion tab

Artist: Saints
Song: Repulsion
Tuning: Drop C
Key:
. mute
~ sustain


Riff One
D---------------------------------------------|
A---------------------------------------------|
F---------------------------------------------|
C------------0-----------0-3-5--6-5--0~-0~-0~-|
G-----9------0-----5-----0-3-5--6-5--0~-0~-0~-| [x2]
C-5678-10987-0-1234-6543-0-3-5--6-5--0~-0~-0~-|
             .           .           . . .

Riff Two
D--------------------------------------------------|
A--------------------------------------------------|
F-7-77777777----7---------5-55555555----5----------|
C-7-77777777---7-7---0000-5-55555555---5-5---0000--|
G-5-55555555--5---5--0000-3-33333333--3---3--0000--| [x5]
C-5-55555555-5-----5-0000-3-33333333-3-----3-0000--|
    ........                ........         ....

Riff Three
D-------------------------------------------------------|
A-------------------------------------------------------|
F-------------------------------------------------------|
C-0----------------6-7---3-5-6-5-0----------------4-5---|
G-0---------------7-4-6--3-5-6-5-0---------------5-2-4--| [x3]
C-0-000000000000-5-----5-3-5-6-5-0-000000000000-3-----3-|
    ...........                    ............

Riff Four
D-12------12-9---9-9p0-8p0-7p0h12--------|
A---10--10----7-7------------------------|
F-----10-------7-------------------------|
C---------------------------------000000-|
G---------------------------------000000-| [x5]
C---------------------------------000000-|
                                  ......

Riff Five
D-------------------------------------|
A-------------------------------------|
F-------------------------------------|
C-000-0-000-000000-000000-2~-2~-2~-2~-|
G-000-0-000-000000-000000-1~-1~-1~-1~-| [x3]
C-000-0-000-000000-000000-0~-0~-0~-0~-|
  ... . ... ...... ...... . . . .

Riff Six
D---------------------------------------------|
A---------------------------------------------|
F---------------------------------------------|
C------------0-----------0-3-5--6-5--3~-3~-3~-|
G-----9------0-----5-----0-3-5--6-5--2~-2~-2~-|
C-5678-10987-0-1234-6543-0-3-5--6-5--1~-1~-1~-|
Tap to rate this tab
# A B C D E F G H I J K L M N O P Q R S T U V W X Y Z