Song name
# A B C D E F G H I J K L M N O P Q R S T U V W X Y Z

Sakkuth - On My Shoulders tab

Help us improve GuitareTab! Take a short survey!
Band-Sakkuth
Title-On My Shoulders
Album-Don't Fight The Urge
www.sakkuth.com
Rhythm of riffs isn't perfect, listen to cd
Tuning - B Standard

Intro

|-----------------------------------------------|
|-----------------------------------------------|
|-----------------------------------------------|
|-----------------------------------------------|
|---------7---------9---------10----------12-12-|
|-000-000---000-000---000-000----000-000-0--0---|

Verse

|-----------------------|---------------------------|
|-----------------------|---------------------------|
|-----------------------|---------------------------|
|-----------------------|---------------------------|
|----10-9----12-10--7-79|----10-9----12-10---10-9-7-|
|-00---0--00---0--0--0--|-00---0--00---0---0--------|

Chorus (Gtr.1)

|--------------------|
|--------------------|
|--------------------|
|--------------------|
|-2-2-9-9-1010-12-12-|
|-0-0-7-7-8-8--10-10-|

Chorus (Gtr.2)

|-17p15-------17p15-19p15-|
|-------17p15-------------|
|-------------------------|
|-------------------------|
|-------------------------|
|-------------------------|

By Joel
Related for On My Shoulders tab