Song name
# A B C D E F G H I J K L M N O P Q R S T U V W X Y Z

Salads - Roth Kung Foo tab

SONG: ROTH KUNG FOO
TABBED BY: DORTEATER
this is a really cool song by a toronto bad called the salads i am suprised nobody has
tabbed it i only tabbed the intro and it is 100% correct enjoy

e-------------------------------------------------|
b-------------------------------------------------|
g-------------9/-11-11-11-11-11/-9-9--------------|
D-7/-9-9-9-9--X/-X--X--X--X--X/--X-X--------------|
A-X/-X-X-X-X--7/-9--9--9--9--9/--7-7--------------|
E-5/-7-7-7-7--------------------------------------|

e-------------------------------------------------|
b-------------------------------------------------|
g-------------9/-11-11-11-11-11/-9-9--------------|
D-7/-9-9-9-9--X/-X--X--X--X--X/--X-X--------------|
A-X/-X-X-X-X--7/-9--9--9--9--9/--7-7--------------|
E-5/-7-7-7-7--------------------------------------|
Tap to rate this tab
# A B C D E F G H I J K L M N O P Q R S T U V W X Y Z