Song name
# A B C D E F G H I J K L M N O P Q R S T U V W X Y Z

Salbakuta - Jumboday tab

Help us improve GuitareTab! Take a short survey!
Intro:
e|-------------------------------------------|
B|-------------------------------------------|
G|-------------------------------------------|
D|-------------------------------------------|
A|--3-----------2--3-------------------------|
E|----0--1--3--------------------------------|


e|-------------------------------------------|
B|-------------------------------------------|
G|-------------------------------------------|
D|-------------------------------------------|
A|--3-----------2--3-------------------------|
E|----0--1--3--------------------------------|

e|-------------------------------------------|
B|-------------------------------------------|
G|-------------------------------------------|
D|-------------------------------------------|
A|--3-----------2--3-------------------------|
E|----0--1--3--------------------------------|

Paulit-ulit lang ang bass tabs nito hanggang matapos. Pakinggan nyo na lng iyung tyempo.

Enjoy!!
3mm@nu31
Related for Jumboday tab