Song name
# A B C D E F G H I J K L M N O P Q R S T U V W X Y Z

Salem Al Fakir - Brooklyn Sun tab

Drop D tuning

Intro
E |-------------------------------------||
B |-----------------------------------*-||
G |----------0----------------0---------||
D |----4---------4------4---------4-----||
A |------5---------5------5---------5-*-||
D |--0-----0---0------0-----0---0-------||


Verse
E |-------------------------------------||-----------------------------------|
B |------------------------------------*||-----------------------------------|
G |----------0----------------0---------||----------7----------------7-------|
D |----4---------4------4---------4-----||------0-------0--------0------0----|
A |------5---------5------5---------5--*||----9---9-------9----9---9------9--|
D |--0-----0---0------0-----0---0-------||--9---------9------9---------9-----|

E |-------------------------------------||
B |------------------------------------*||
G |----------4----------------4---------||
D |------0-------0--------0------0------||
A |----5---5-------5----5---5------5---*||
D |--5---------5------5---------5-------||

Chorus
E |--------------------------------------------------------------|
B |------------------------------------------------------------*-|
G |------7------6--------4------------0---------------0----------|
D |--------0------0---------------4-------4-------4-------4------|
A |----9-------7-------5---0----5-----------5---5-----------5--*-|
D |--9-------7-------5--------0-----0---0-----0-----0---0--------|


E |-----------------------------------------------------||
B |---------------------------------------------------*-||
G |----------0--------------2----------------4----------||
D |------0------0--------0------0--------0------0-------||
A |----0---0------0----0---0------0----5---5------5---*-||
D |--2--------2------4--------4------5---------5----5---||

Bridge

E |--------------------------------------------------------------------|
B |--------------------------------------------------------------------|
G |----------6--------------6----------------4----------------4--------|
D |------0------0-------0-------0--------0-------0--------0-------0----|
A |----7---7------7---7---7-------7----5---5-------5----5---5-------5--|
D |--7---------7----7---------7------5---------5------5---------0------|

E |---------------------------------------------------|
B |---------------------------------------------------|
G |----------2----------------2--------------0--------|
D |------0-------0--------0-------0------0-----0---0--|
A |----0---0---0---0----0---0---0---0-----------------|
D |--4----------------4----------------2---2-----2----|
Tap to rate this tab
 
# A B C D E F G H I J K L M N O P Q R S T U V W X Y Z