Song name
# A B C D E F G H I J K L M N O P Q R S T U V W X Y Z

Salem - Flames tab

- Salem -
 Flames
 TABBED BY: Avishay Zabari

Enjoy...

Intro:
e|------------------------------------------------------|
B|------------------------------------------------------|
G|------------------------------------------------------|     
D|------------------------------------------------------| 
D|------------------------------------------9-----------|   
A|---------7~---------8~-------7~-------7h8---8p7h8-----|    x4
E|--0-0-0-----0-0-0-0----0-0-0--- 0-0-0-----------------|


e|---------------------------------------|
B|---------------------------------------|
G|---------------------------------------|     
D|---------------------------------------|  
A|---------7~---------8~---------8--7----|   
E|--0-0-0-----0-0-0-0----0-0-0---6--5----|


e|------------------------------------------------------|
B|------------------------------------------------------|
G|------------------------------------------------------|     
D|------------------------------------------9-----------|   
A|---------7~---------8~-------7~-------7h8---8p7h8-----|    
E|--0-0-0-----0-0-0-0----0-0-0--- 0-0-0-----------------|


e|---------------------------------------|
B|---------------------------------------|
G|---------------------------------------|     
D|---------------------------------------|   
A|---------7~---------8~---------8--7----|   
E|--0-0-0-----0-0-0-0----0-0-0---6--5----|


e|---------------------------------------|
B|---------------------------------------|
G|---------------------------------------|     
D|---------------------------------------|   
D|-2-2--2-2--2-2--2-2----2-2--2-2--2-2--x|   
A|-2-2--2-2--2-2--2-2----2-2--2-2--2-2--x|    
E|-0-0--0-0--0-0--0-0----0-0--0-0--0-0--x|
   . .  . .  . .  . .    . .  . .  . .   <----palm mute...

e|---------------------------------------|
B|----------------------------------2p0--|
G|---------------------------------------|     
D|-2-3--2-3-----9---------2-3--2-3-------|  x2 
A|-2-3--2-3-7h8---8p7h8---2-3--2-3-------|
E|-0-1--0-1---------------0-1--0-1-------|

Chorus:
e|------------------------------|
B|------------------------------|
G|------------------------------|    
D|-7--------9-------------------|
A|-7-7-7-7--9--9--9--9--9--9----|
E|-5-5-5-5--7--7--7--7--7--7----|


e|------------------------------|
B|------------------------------|
G|------------------------------|    
D|-7--------5---------+3+b------|
A|-7-7-7-7--5-5-5-5-5-----------|
E|-5-5-5-5--3-3-3-3-3-----------|


e|------------------------------|
B|------------------------------|
G|------------------------------|    
D|-7--------9-------------------|
A|-7-7-7-7--9--9--9--9--9--9----|
E|-5-5-5-5--7--7--7--7--7--7----|


e|---------------------------|
B|---------------------------|
G|---------------------------|    
D|-7--------5----------------|
A|-7-7-7-7--5-5-5-5-5-+3+b---|
E|-5-5-5-5--3-3-3-3-3--------|

Outro:
e|----------------|
B|----------------|
G|----------------|     
D|----------------|   
D|-2-2--2-2--2-2--|   
A|-2-2--2-2--2-2--|    
E|-0-0--0-0--0-0--|
   . .  . .  . .     <----palm mute...


| /  slide up
| \  slide down
| h  hammer-on
| p  pull-off
| ~  vibrato
| +  harmonic
| x  Mute note

lyrics:

Flames
Rage from above
Untamed
The ground shake below
Set the earth on fire 
Set the earth on fire

Leave behind yesterday
Look ahead far away
Dive into a sea of tears
99 the worst of years

Crazed
Prophet of despair
Amazed
Truth in his words
Set the earth on fire
Set the earth on fire

Leave behind yesterday
Look ahead far away
Dive into a sea of tears
99 the worst of years
Flames
Rage in his eyes
Untamed
Visions in his mind
Set the earth on fire
Set the earth on fire

Leave behind yesterday
Look ahead far away
Dive into a sea of tears
99 the worst of years
Flames!!!!!!!!!!!!!!!!!!



by avishay zabari!!!!!!!
Tap to rate this tab
# A B C D E F G H I J K L M N O P Q R S T U V W X Y Z