Guitaretab - guitar tabs
Song name
# A B C D E F G H I J K L M N O P Q R S T U V W X Y Z

Saliva - Always Acoustic tab

(1)D#
(2)A#
(3)F#
(4)C#
(5)G#
(6)D#


D#------------------------------------------|
A#------------------------------------------|
F#------------------------7-----------------| Repeat
C#------2--------5------7---7-----7---------|
G#----2---2----5---5--5---------7---7-------|
D#--0--------3----------------5-------------|
[ Tab from: http://www.guitaretab.com/s/saliva/107009.html ]
D#---------------------------------------------------------------------|
A#---------------------------------------------------------------------|
F#------------------------------------------------------------7---9----|
C#----------------------------------------------------------------9----|
G#--2-2-2-2-2-2-2-2-0-0-0-0-0-0-0-0---------------------------5---7----|
D#----------------------------------3-3-3-3-3-3-3-3-0-0-0-0------------|

D#--------------------------------------------------|
A#--------------------------------------------------|
F#--------------------------7--7--x--7--------------| Repeat
C#--2--2--x--2--5--5--x--5--7--7--x--7--7--7--x--7--|
G#--2--2--x--2--5--5--x--5--5--5--x--5--7--7--x--7--|
D#--0--0--x--0--3--3--x--3--------------5--5--x--5--|

D#-------------------------------------|
A#-------------------------------------|
F#------------------7-7-7-7------------|
C#--2-2-2-2-5-5-5-5-7-7-7-7-7-7-7-7----|Repeat
G#--2-2-2-2-5-5-5-5-5-5-5-5-7-7-7-7----|
D#--0-0-0-0-3-3-3-3---------5-5-5-5----|
Related for Always Acoustic tab
×
Best way to learn
"Always Acoustic"