Song name
# A B C D E F G H I J K L M N O P Q R S T U V W X Y Z

Saliva - Turn The Tables tab

Saliva
Turn the Tables
by: Sven Wolf (svenwolf@hotmail.de)

Intro:

|---------------------------------------------------|
|---------------------------------------------------|
|---x---x---3---x---x---1---x---x---3---x---x---1---|
|---x---x---3---x---x---1---x---x---3---x---x---1---|
|---------------------------------------------------|
|---------------------------------------------------|

|---------------------------------------------------|
|---------------------------------------------------|
|---x---x---3---x---x---1-2-x---x---3---x---x---1---|
|---x---x---3---x---x---1-2-x---x---3---x---x---1---|
|---------------------------------------------------|
|---------------------------------------------------|
Tap to rate this tab
 
# A B C D E F G H I J K L M N O P Q R S T U V W X Y Z