Song name
# A B C D E F G H I J K L M N O P Q R S T U V W X Y Z

Saliva - Weight Of The World tab

Tuning-Db Ab Db Gb Bb eb

I was messing around with this song and liked the sound so this is the best I could do, 
believe it is pretty good.

Intro part 1       4x
|------------------|
|------------------|
|---------6-6-6-4--|
|--4p6-4--4-4-4-4--|
|--4---4-----------|
|--4---4-----------|

Intro part 2                     4x
|---------------------------------|
|---------------------------------|
|---------------------------------|
|--0p4-4-4--0p4-4-4--0-0-0-0------|
|--0p4-4-4--0p4-4-4--0-0-0-0------|
|--0p4-4-4--0p4-4-4--0-0-0-0------|

This is played during the part above, but i play above four times and then jump to this, 
way you only need one guitar.
Intro part 3                 2x
|-----------------------------|
|-----------------------------|
|--6--6/7--6\2----------------|
|--x--x/7--x\0----------------|
|--4--4/5--4\-----------------|
|-----------------------------|

The verse is tricky, its mostly bass and drums, I think its something like this with a 
effect
|-----------------------------|
|-----------------------------|
|--6-6-6p7-7-7-6-6\2----------|
|-----------------------------|
|-----------------------------|
|-----------------------------|

Pre chours
|-----------------------------------------------------|
|-----------------------------------------------------|
|-----------------------------------------------------|
|--2-2xx--2--2-2-2-2-2-2--0-0xx--0--0-0-0-0-0-0-------|
|--2-2xx--2--2-2-2-2-2-2--0-0xx--0--0-0-0-0-0-0-------|
|--2-2xx--2--2-2-2-2-2-2--0-0xx--0--0-0-0-0-0-0-------|

Cont.                                                2x
|-----------------------------------------------------|
|-----------------------------------------------------|
|-----------------------------------------------------|
|--4-4xx--4--4-4-4-4-4-4-4--2-2xx--2--2-2-2-2-2-2-2---|
|--4-4xx--4--4-4-4-4-4-4-4--2-2xx--2--2-2-2-2-2-2-2---|
|--4-4xx--4--4-4-4-4-4-4-4--2-2xx--2--2-2-2-2-2-2-2---|

Chours                                            4x
|--------------------------------------------------|
|--------------------------------------------------|
|--------------------------------------------------|
|--4-4xx-7--7-7-7-7-7-7-7--2-2xx-0--0-0-0-0-0-0-0--|
|--4-4xx-7--7-7-7-7-7-7-7--2-2xx-0--0-0-0-0-0-0-0--|
|--4-4xx-7--7-7-7-7-7-7-7--2-2xx-0--0-0-0-0-0-0-0--|

After chours                     4x
|---------------------------------|
|---------------------------------|
|---------------------------------|
|--0p4-4-4--0p4-4-4--0-0-0-0------|
|--0p4-4-4--0p4-4-4--0-0-0-0------|
|--0p4-4-4--0p4-4-4--0-0-0-0------|

Verse
|-----------------------------|
|-----------------------------|
|--6-6-6p7-7-7-6-6\2----------|
|-----------------------------|
|-----------------------------|
|-----------------------------|

Pre chours
|-----------------------------------------------------|
|-----------------------------------------------------|
|-----------------------------------------------------|
|--2-2xx--2--2-2-2-2-2-2--0-0xx--0--0-0-0-0-0-0-------|
|--2-2xx--2--2-2-2-2-2-2--0-0xx--0--0-0-0-0-0-0-------|
|--2-2xx--2--2-2-2-2-2-2--0-0xx--0--0-0-0-0-0-0-------|

Cont.                                                2x
|-----------------------------------------------------|
|-----------------------------------------------------|
|-----------------------------------------------------|
|--4-4xx--4--4-4-4-4-4-4-4--2-2xx--2--2-2-2-2-2-2-2---|
|--4-4xx--4--4-4-4-4-4-4-4--2-2xx--2--2-2-2-2-2-2-2---|
|--4-4xx--4--4-4-4-4-4-4-4--2-2xx--2--2-2-2-2-2-2-2---|

Chours                                            4x
|--------------------------------------------------|
|--------------------------------------------------|
|--------------------------------------------------|
|--4-4xx-7--7-7-7-7-7-7-7--2-2xx-0--0-0-0-0-0-0-0--|
|--4-4xx-7--7-7-7-7-7-7-7--2-2xx-0--0-0-0-0-0-0-0--|
|--4-4xx-7--7-7-7-7-7-7-7--2-2xx-0--0-0-0-0-0-0-0--|


Solo
play this part 3x             Then add this bend
|----------------------------|------------------|
|----------------------------|------------------|
|---4/8------9-7-6-----------|---6b-------------|
|-------9----------9p7-7p9---|------------------|
|---------9----------------9-|------------------|
|----------------------------|------------------|

Play intro part 1  4x
|------------------|
|------------------|
|---------6-6-6-4--|
|--4p6-4--4-4-4-4--|
|--4---4-----------|
|--4---4-----------|

Chours                                            8x
|--------------------------------------------------|
|--------------------------------------------------|
|--------------------------------------------------|
|--4-4xx-7--7-7-7-7-7-7-7--2-2xx-0--0-0-0-0-0-0-0--|
|--4-4xx-7--7-7-7-7-7-7-7--2-2xx-0--0-0-0-0-0-0-0--|
|--4-4xx-7--7-7-7-7-7-7-7--2-2xx-0--0-0-0-0-0-0-0--|

After chours                     4x
|---------------------------------|
|---------------------------------|
|---------------------------------|
|--0p4-4-4--0p4-4-4--0-0-0-0------|
|--0p4-4-4--0p4-4-4--0-0-0-0------|
|--0p4-4-4--0p4-4-4--0-0-0-0------|

End on            4x
|------------------|
|------------------|
|---------6-6-6-4--|
|--4p6-4--4-4-4-4--|
|--4---4-----------|
|--4---4-----------|


There you have it,
Hope everyone enjoys it
Thanks for looking please rate!
Tap to rate this tab
# A B C D E F G H I J K L M N O P Q R S T U V W X Y Z