Song name
# A B C D E F G H I J K L M N O P Q R S T U V W X Y Z

Saliva - I Want You tab

-------------------------------------------------------------------------------
			     Saliva - I Want You
-------------------------------------------------------------------------------
Tabbed by:Pete Griffin
This is just my interpretation of the song, and it is by no means all correct.
I've tabbed the most prominant parts of the song including the solo.  I've tried
to show the rhythm the best i can, but you have to pick it up from the song really.
The rhythm guitar in the intro is the same as the rhythm guitar in the chorus.

Tuning:Drop D all down half a step (Db Ab Db Gb Bb Eb)

0.00 Intro(Distorted)
e|-----------------------------------------------------------------------|
B|-9---------------9--------------9--------------9-----------------------|
G|---10-9-7-9-10-----10-9-7-5/7-----10-9-7-9-10----10-9-7-5--------------|x2
D|-----------------------------------------------------------------------|
A|-----------------------------------------------------------------------|
D|-----------------------------------------------------------------------|

0.19 Verse(Distorted)
e|-----------------------------------------------------------------------|
B|-----------------------------------------------------------------------|
G|-----------------------------------------------------------------------|
D|-5/7-x-x-7\--3-3--3/5-x-x-5\--3-3--5/7-x-x-7\--3-3--3/5-x-x-5-5--------|x2
A|-5/7-x-x-7\--3-3--3/5-x-x-5\--3-3--5/7-x-x-7\--3-3--3/5-x-x-5-5--------|
D|-5/7-x-x-7\--3-3--3/5-x-x-5\--3-3--5/7-x-x-7\--3-3--3/5-x-x-5-5--------|
                                                            pm.
0.39 Chorus(Distorted)
e|-----------------------------------------------------------------------|
B|-----------------------------------------------------------------------|
G|-----------------------------------------------------------------------|
D|-7-7-7-x--3-3-3-3/5-5-5-5/7-7-7-7--7-7-7-x--3-3-3-3/5-5-5-5-5-5-5-5----|x2
A|-7-7-7-x--3-3-3-3/5-5-5-5/7-7-7-7--7-7-7-x--3-3-3-3/5-5-5-5-5-5-5-5----|
D|-7-7-7-x--3-3-3-3/5-5-5-5/7-7-7-7--7-7-7-x--3-3-3-3/5-5-5-5-5-5-5-5----|

0.59 Post Chorus(Distorted)
e|------------------------------------------------------------------------|
B|------------------------------------------------------------------------|
G|------------------------------------------------------------------------|
D|-3-3-3-3--5-5-5-5--7-7-7-7--5-5-5-5--3-3-3-3--5-5-5-5--7-7-7-7--5-5-5-5-|
A|-3-3-3-3--5-5-5-5--7-7-7-7--5-5-5-5--3-3-3-3--5-5-5-5--7-7-7-7--5-5-5-5-|
D|-3-3-3-3--5-5-5-5--7-7-7-7--5-5-5-5--3-3-3-3--5-5-5-5--7-7-7-7--5-5-5-5-|

1.19 Intro x1

1.29 Verse x2

1.49 Chorus x2

2.08 Post Chorus

2.28 Solo
e|-----------------------------------------------------------------------|
B|-----------------------------------------------------------------------|
G|-9---------------9---------------9--------------9----------------------|
D|---10-7----7/10----10-9----9-10----10-9-7-9-10----10-9-7-5-------------|
A|---------8--------------10---------------------------------------------|
D|-----------------------------------------------------------------------|

e|-----------------------------------------------------------------------|
B|-8/10-10-10--10/12-12-12--12/13--13-13--13/15--15-15-------------------|
G|-x-x--x--x----x/x--x--x----x-x---x--x---x--x---x--x--------------------|
D|-5/7--7--7----7/9--9--9----9/10--10-10--10/12--12-12-------------------|
A|-----------------------------------------------------------------------|
D|-----------------------------------------------------------------------|

e|-------------------------------------------------------------------15----|
B|--------------------------13----15-13-15-15b(17)r15p13----13-15/17----17-|
G|-----12-14----12h14p12-14----14------------------------14----------------|
D|-/14-------14------------------------------------------------------------|
A|-------------------------------------------------------------------------|
D|-------------------------------------------------------------------------|

e|-15h17p15----15-17/20-17----17-----------17-15---------------------------|
B|----------17-------------20----20b(22)---------17-15-16p15----15---------|
G|-----------------------------------------------------------17----14------|
D|--------------------------------------------------------------------17-14|
A|-------------------------------------------------------------------------|
D|-------------------------------------------------------------------------|
                                       ~~~~~~~~~~~~~
e|------------------------------------------------------------------------|
B|-------------------------------20b(22)----------------------------------|
G|--------------17-19b(21)r19p17------------------------------------------|
D|-14h17p14-/19-----------------------------------------------------------|
A|------------------------------------------------------------------------|
D|------------------------------------------------------------------------|

2.53 Chorus x1.5

3.08 Outro
e|-----------------------------------------------------------------------|
B|-----------------------------------------------------------------------|
G|-----------------------------------------------------------------------|
D|-7-7-7-7--3-3-3-3/5-5-5-5-5-5-5-5--------------------------------------|x4
A|-7-7-7-7--3-3-3-3/5-5-5-5-5-5-5-5--------------------------------------|
D|-7-7-7-7--3-3-3-3/5-5-5-5-5-5-5-5--------------------------------------|

Last chord (let ring)
e|-----------------------------------------------------------------------|
B|-----------------------------------------------------------------------|
G|-----------------------------------------------------------------------|
D|----7------------------------------------------------------------------|
A|----7------------------------------------------------------------------|
D|----7------------------------------------------------------------------|

Hope you have fun playing this cool song, and please rate! :D


| /  slide up
| \  slide down
| h  hammer-on
| p  pull-off
| ~  vibrato
| +  harmonic
| x  Mute note
=========================================================================
Tap to rate this tab
# A B C D E F G H I J K L M N O P Q R S T U V W X Y Z