Song name
# A B C D E F G H I J K L M N O P Q R S T U V W X Y Z

Saliva - I Walk Alone tab

This is my first tab and i hope you will enjoy it! (Submitted by Joe.B)

This is the tab of the song "I walk alone" by Saliva.
It took me a few minutes to figure it out and its a pretty fun tune to listen so i hope 
will like it.
Unlike the tabs in ultimate guitar i figured out that the tuning is not drop D - its 
C because if you will listen carefully you will find out that the open D chord in the Drop 
version sounds differently in the song.
Thats because its half tune lower then in the Drop D tab.
Well anyway here is the tab:

|--------------------------------------------------------------------------|
|--------------------------------------------------------------------------|
|--------------------------------------------------------------------------|
|--4--1--4--1--4--1--4-6-4-6-1---4--1--4--1--6-7-6-4-6-4-------------------|
|--4--1--4--1--4--1--4-6-4-6-1---4--1--4--1--6-7-6-4-6-4-------------------|
|--4--1--4--1--4--1--4-6-4-6-1---4--1--4--1--6-7-6-4-6-4-------------------|


|--------------------------------------------------------------------------|
|--------------------------------------------------------------------------|
|--------------------------------------------------------------------------|
|--4--1--4--1--4--1--4-6-4-6-1---4--1--4--1--6-7-6-4-6-4-------------------|
|--4--1--4--1--4--1--4-6-4-6-1---4--1--4--1--6-7-6-4-6-4-------------------|
|--4--1--4--1--4--1--4-6-4-6-1---4--1--4--1--6-7-6-4-6-4-------------------|

|--------------------------------------------------------------------------|
|--------------------------------------------------------------------------|
|--------------------------------------------------------------------------|
|--4--1--4--1--4--1--4-6-4-6-1---4--1--4--1--6-7-6-4-6-4-------------------|
|--4--1--4--1--4--1--4-6-4-6-1---4--1--4--1--6-7-6-4-6-4-------------------|
|--4--1--4--1--4--1--4-6-4-6-1---4--1--4--1--6-7-6-4-6-4-------------------|


Verse


|--------------------------------------------------------------------------|
|--------------------------------------------------------------------------|
|--------------------------------------------------------------------------|
|--1---4---7---6-----1---4---7---6-----------------------------------------|
|--1---4---7---6-----1---4---7---6-----------------------------------------|
|--1---4---7---6-----1---4---7---6-----------------------------------------|


PRE-CHORUS: 2X

|--------------------------------------------------------------------------|
|--------------------------------------------------------------------------|
|--7-\-8-8-8-8--6----------------------------------------------------------|
|--7-\-8-8-8-8--6----7-7-7-7-7---6--6-6-6-6-6--4---------------------------|
|--5-\-6-6-6-6--4----7-7-7-7-7---6--6-6-6-6-6--4---------------------------|
|--------------------7-7-7-7-7---6--6-6-6-6-6--4---------------------------|


CHORUS


|--------------------------------------------------------------------------|
|--------------------------------------------------------------------------|
|--------------------------------------------------------------------------|
|--4--1--4--1--4--1--4-6-4-6-1---4--1--4--1--6-7-6-4-6-4-------------------|
|--4--1--4--1--4--1--4-6-4-6-1---4--1--4--1--6-7-6-4-6-4-------------------|
|--4--1--4--1--4--1--4-6-4-6-1---4--1--4--1--6-7-6-4-6-4-------------------|

VERSE


|--------------------------------------------------------------------------|
|--------------------------------------------------------------------------|
|--------------------------------------------------------------------------|
|--1---4---7---6-----1---4---7---6-----------------------------------------|
|--1---4---7---6-----1---4---7---6-----------------------------------------|
|--1---4---7---6-----1---4---7---6-----------------------------------------|


PRE-CHORUS


|--------------------------------------------------------------------------|
|--------------------------------------------------------------------------|
|--7-\-8-8-8-8--6----------------------------------------------------------|
|--7-\-8-8-8-8--6----7-7-7-7-7---6--6-6-6-6-6--4---------------------------|
|--5-\-6-6-6-6--4----7-7-7-7-7---6--6-6-6-6-6--4---------------------------|
|--------------------7-7-7-7-7---6--6-6-6-6-6--4---------------------------|


Solo Background Guitar


|--------------------------------------------------------------------------|
|--------------------------------------------------------------------------|
|--------------------------------------------------------------------------|
|--1-1-1--1-1-1--1-1-1---4-4-4--4-4-4--4-4-4-------------------------------|
|--1-1-1--1-1-1--1-1-1---4-4-4--4-4-4--4-4-4-------------------------------|
|--1-1-1--1-1-1--1-1-1---4-4-4--4-4-4--4-4-4-------------------------------|
pm . . .  . . .  . . .   . . .  . . .  . . .

|--------------------------------------------------------------------------|
|--------------------------------------------------------------------------|
|--------------------------------------------------------------------------|
|--7-7-7--7-7-7--7-7-7---6-6-6--6-6-6--6-6-6-------------------------------|
|--7-7-7--7-7-7--7-7-7---6-6-6--6-6-6--6-6-6-------------------------------|
|--7-7-7--7-7-7--7-7-7---6-6-6--6-6-6--6-6-6-------------------------------|
pm . . .  . . .  . . .   . . .  . . .  . . .

|--------------------------------------------------------------------------|
|--------------------------------------------------------------------------|
|--------------------------------------------------------------------------|
|--1-1-1--1-1-1--1-1-1---4-4-4--4-4-4--4-4-4-------------------------------|
|--1-1-1--1-1-1--1-1-1---4-4-4--4-4-4--4-4-4-------------------------------|
|--1-1-1--1-1-1--1-1-1---4-4-4--4-4-4--4-4-4-------------------------------|
pm . . .  . . .  . . .   . . .  . . .  . . .

|--------------------------------------------------------------------------|
|--------------------------------------------------------------------------|
|--------------------------------------------------------------------------|
|--7-7-7--7-7-7--7-7-7---6-6-6--6-6-6--6-6-6-------------------------------|
|--7-7-7--7-7-7--7-7-7---6-6-6--6-6-6--6-6-6-------------------------------|
|--7-7-7--7-7-7--7-7-7---6-6-6--6-6-6--6-6-6-------------------------------|
pm . . .  . . .  . . .   . . .  . . .  . . .

|--------------------------------------------------------------------------|
|--------------------------------------------------------------------------|
|--------------------------------------------------------------------------|
|--1---4---7---6-----1---4---7---6-----------------------------------------|
|--1---4---7---6-----1---4---7---6-----------------------------------------|
|--1---4---7---6-----1---4---7---6-----------------------------------------|


OUTRO


|--------------------------------------------------------------------------|
|--------------------------------------------------------------------------|
|--7-\-8-8-8-8--6----------------------------------------------------------|
|--7-\-8-8-8-8--6----7-7-7-7-7---6--6-6-6-6-6--4---------------------------|
|--5-\-6-6-6-6--4----7-7-7-7-7---6--6-6-6-6-6--4---------------------------|
|--------------------7-7-7-7-7---6--6-6-6-6-6--4---------------------------|


|--------------------------------------------------------------------------|
|--------------------------------------------------------------------------|
|--7-\-8-8-8-8--6----------------------------------------------------------|
|--7-\-8-8-8-8--6----7-7-7-7-7---6--6-6-6-6-6--4---------------------------|
|--5-\-6-6-6-6--4----7-7-7-7-7---6--6-6-6-6-6--4---------------------------|
|--------------------7-7-7-7-7---6--6-6-6-6-6--4---------------------------|


|--------------------------------------------------------------------------|
|--------------------------------------------------------------------------|
|--7-\-8-8-8-8--6----------------------------------------------------------|
|--7-\-8-8-8-8--6----7-7-7-7-7---6--6-6-6-6-6--4---------------------------|
|--5-\-6-6-6-6--4----7-7-7-7-7---6--6-6-6-6-6--4---------------------------|
|--------------------7-7-7-7-7---6--6-6-6-6-6--4---------------------------|


|--------------------------------------------------------------------------|
|--------------------------------------------------------------------------|
|--7-\-8-8-8-8--6----------------------------------------------------------|
|--7-\-8-8-8-8--6----7-7-7-7-7---6--6-6-6-6-6--4---------------------------|
|--5-\-6-6-6-6--4----7-7-7-7-7---6--6-6-6-6-6--4---------------------------|
|--------------------7-7-7-7-7---6--6-6-6-6-6--4---------------------------|

|----------------------------------------------------------------------------|
|----------------------------------------------------------------------------|
|----------------------------------------------------------------------------|
|--4--1--4--1--4--1--4-6-4-6-1---4--1--4--1--6-7-6-4-6-4---------------------|
|--4--1--4--1--4--1--4-6-4-6-1---4--1--4--1--6-7-6-4-6-4---------------------|
|--4--1--4--1--4--1--4-6-4-6-1---4--1--4--1--6-7-6-4-6-4---------------------|
|----------------------------------------------------------------------------|
|----------------------------------------------------------------------------|
|----------------------------------------------------------------------------|
|--4--1--4--1--4--1--4-6-4-6-1---4--1--4--1--6-7-6-4-6-4---------------------|
|--4--1--4--1--4--1--4-6-4-6-1---4--1--4--1--6-7-6-4-6-4---------------------|
|--4--1--4--1--4--1--4-6-4-6-1---4--1--4--1--6-7-6-4-6-4---------------------|

|--------------------------------------------------------------------------|
|--------------------------------------------------------------------------|
|--------------------------------------------------------------------------|
|--4--1--4--1--4--1--4-6-4-6-1---4--1--4--1--6-7-6-4-6-4-------------------|
|--4--1--4--1--4--1--4-6-4-6-1---4--1--4--1--6-7-6-4-6-4-------------------|
|--4--1--4--1--4--1--4-6-4-6-1---4--1--4--1--6-7-6-4-6-4-------------------|


|--------------------------------------------------------------------------|
|--------------------------------------------------------------------------|
|--------------------------------------------------------------------------|
|--4--1--4--1--4--1--4-6-4-6-1---4--1--4--1--6-7-6-4-6-4-------------------|
|--4--1--4--1--4--1--4-6-4-6-1---4--1--4--1--6-7-6-4-6-4-------------------|
|--4--1--4--1--4--1--4-6-4-6-1---4--1--4--1--6-7-6-4-6-4-------------------|

|--------------------------------------------------------------------------|
|--------------------------------------------------------------------------|
|--------------------------------------------------------------------------|
|--1~----------------------------------------------------------------------|
|--1~----------------------------------------------------------------------|
|--1~----------------------------------------------------------------------|

Thats pretty much it...
For all of those who dont know how this tab sounds I will upload a video of me playing 
tune on youtube pretty sone.
for now you can figure out the speed and the picking by listening to the song.
I hope this tab helped you out. Peace.
Tap to rate this tab
# A B C D E F G H I J K L M N O P Q R S T U V W X Y Z