Song name
# A B C D E F G H I J K L M N O P Q R S T U V W X Y Z

Saliva - One More Chance tab

Help us improve GuitareTab! Take a short survey!
---------------------------------------------------------------------------
	              SALIVA - One More Chance
---------------------------------------------------------------------------
Tabbed by:Pete Griffin

Tuning:Drop D down half a step (Db Ab Db Gb Bb Eb)

This is just my interpretation of this song, and is by no means correct.

The tab includes mainly the rhythm guitar + solo parts.

You'll have to listen to the song to get the feel for the rhythm.

0.00 Intro (Pre-Verse) (Distorted)
e|-----0-0------0-0--------------0-0------0-0----------------------------|
B|-----5-5------5-5--------------5-5------5-5----------------------------|
G|-----2-2------2-2--------------2-2------2-2----------------------------|x4
D|-0-0-0-0--0-0-0-0------------0-0-0--0-0-0-0-7/8-8-8--------------------|
A|-0-0-0-0--0-0-0-0-----0-1-0--0-0-0--0-0-0-0-7/8-8-8--------------------|
D|-0-0-0-0--0-0-0-0-0-3--------0-0-0--0-0-0-0-7/8-8-8--------------------|
 pm...    pm...              pm.    pm...

0.19 Verse (Clean with chorus)
e|---------0------------0-----------0-----------0------------------------|
B|------6------------6-----------6-----------6---------------------------|
G|-------------7-----------------------7---------------------------------|
D|---7------------8-----------7-----------8------------------------------|
A|-----------------------------------------------------------------------|
D|-0------------------------0--------------------------------------------|

0.39 Pre-Chorus (Distorted)
e|-----------------------------------------------------------------------|
B|-----------------------------------------------------------------------|
G|--------------------------------------7/9-9-9-9--5---------------------|
D|-8-8-8-8-8-8-8-8-8-8-8-8-8-8---0-0-0--x-x-x-x-x--x---------------------|
A|-8-8-8-8-8-8-8-8-8-8-8-8-8-8---0-0-0--5/7-7-7-7--3---------------------|
D|-8-8-8-8-8-8-8-8-8-8-8-8-8-8---0-0-0-----------------------------------|

e|-----------------------------------------------------------------------|
B|-----------------------------------------------------------------------|
G|--------7/9-9-9-9--5---------------------------------------------------|
D|-0-0-0--x-x-x-x-x--x--8-8-8-8-8-8-8-8-8-8-8-8-8-8----------------------|
A|-0-0-0--5/7-7-7-7--3--8-8-8-8-8-8-8-8-8-8-8-8-8-8----------------------|
D|-0-0-0----------------8-8-8-8-8-8-8-8-8-8-8-8-8-8----------------------|

e|-----------------------------------------------------------------------|
B|-----------------------------------------------------------------------|
G|-----------------------------------------------------------------------|
D|-7-7-7-7-7-7-7-7--8-8-8-8--10-10-10-10---------------------------------|
A|-7-7-7-7-7-7-7-7--8-8-8-8--10-10-10-10---------------------------------|
D|-7-7-7-7-7-7-7-7--8-8-8-8--10-10-10-10---------------------------------|

0.59 Chorus (Distorted)
e|-0-0-0-0-0-0-0-0-------------------------------------------------------|
B|-3-3-3-3-3-3-3-3-------------------------------------------------------|
G|-2-2-2-2-2-2-2-2--5-5-5-5-5-5-5-5--9-9-9-9-9-9-9-9--5-5-5-5-5-5-5-5----|
D|-0-0-0-0-0-0-0-0--3-3-3-3-3-3-3-3--7-7-7-7-7-7-7-7--5-5-5-5-5-5-5-5----|x2
A|-0-0-0-0-0-0-0-0--3-3-3-3-3-3-3-3--7-7-7-7-7-7-7-7--3-3-3-3-3-3-3-3----|
D|-0-0-0-0-0-0-0-0--3-3-3-3-3-3-3-3--7-7-7-7-7-7-7-7---------------------|

1.19 Intro (Pre-Verse)

1.29 Verse

1.48 Pre-Chorus

2.08 Chorus

2.28 Intro (Pre-Verse)

2.38 Solo (Distorted)
e|-------------------------------------------------------------------------|
B|-10-------12-------13-------15-------10-------13-------12-------8--------|
G|-12b(14)--14b(16)--15b(17)--17b(19)--12b(14)--15b(17)--14b(16)--10b(12)10|
D|-------------------------------------------------------------------------|
A|-------------------------------------------------------------------------|
D|-------------------------------------------------------------------------|
   Ph*
e|-------------------------------------------------------------------------|
B|12b(14)rb(14)--10-13-13br1313b--15-13------------------------------------|
G|--------------------------------------12h13p12----12--------------10-10--|
D|-----------------------------------------------15----12-15--10-12-10-1012|
A|-------------------------------------------------------------------------|
D|-------------------------------------------------------------------------|

e|----15b(17)-15b(17)r(15)p13-------16-15-13-15h16p15p13-------------------|
B|-15-------------------------15p13----------------------15p13-------------|
G|-------------------------------------------------------------------------|
D|-------------------------------------------------------------------------|
A|-------------------------------------------------------------------------|
D|--------------------------------------------------------------------------|

e|-------------------------------------------------------------------------|
B|-------------------------------------------------------------------------|
G|-------------------------------------------------------------------------|
D|-t15p12t15p12t15p12t16p13t16p13t16p13t17p14t17p14t17p14t18p15t18p15t18p15|
A|-------------------------------------------------------------------------|
D|-------------------------------------------------------------------------|
Tap the indicated fret with the side of your pick while gradually sliding up with your left hand
e|-------------------------------------------------------------------------|
B|-------------------------------------------------------------------------|
G|-------------------------------------------------------------------------|
D|-t19p16t19p16t19p16t20p17t20p17t20p17t21p18t21p18t21p18------------------|
A|----------------------------------------------------------19\\\\\\-------|
D|----------------------------------------------------------19\\\\\\-------|

3.00 Chorus x2

3.40 Intro (Pre-verse)x2
| /  slide up
| \  slide down
| h  hammer-on
| p  pull-off
| ~  vibrato
| +  harmonic
| x  Mute note
| Ph Pinch harmonic
| t  Right hand tap

Hope you have fun playing this cool song!!!
===========================================================================
Related for One More Chance tab