Song name
# A B C D E F G H I J K L M N O P Q R S T U V W X Y Z

Saliva - Open Eyes tab

Open Eyes Intro, by Saliva


d|--------------------|--------------------|--------------------|--------------------|
A|--------------------|--------------------|--------------------|--------------------|
F|----------0---------|----------0---------|-----------0--------|----------2p0-------|
C|------3------3---3--|------3------3---3--|------3------3---3--|------3-------3-----|
G|----1---1------1----|----1---1------1----|----0----0-----0----|----0---0-----------|
C|--1-----------------|--1-----------------|--0-----------------|--0-----------------|

    |--------------------|--------------------|--------------------|--|
|--------------------|--------------------|--------------------|------|
|----------0---------|----------0---------|-----------0--------|---2--|
|------3------3---3--|------3------3---3--|------3------3---3--|------|
|----1---1------1----|----1---1------1----|----0----0-----0----|------|
|--1-----------------|--1-----------------|--0-----------------|------|
                                                                  let ring
this repeats, and is played in various parts of the song
Tap to rate this tab
# A B C D E F G H I J K L M N O P Q R S T U V W X Y Z