Song name
# A B C D E F G H I J K L M N O P Q R S T U V W X Y Z

Saliva - Your Disease tab

OK this is one of the easiest songs you're gonna learn.

Tuning: C G C F A D (Dropped C)   Use distortion throughout.

~~ = let ring.
/ = slide.
h = hammer on.
p = pull off.
X = mute.


Intro.
        
D-9-9-9-9-9-9-9-9-/-10-10-10-10-10-10-10-10---------
A-X-X-X-X-X-X-X-X-/-X--X--X--X--X--X--X--X----------
F-6-6-6-6-6-6-6-6-/-7--7--7--7--7--7--7--7----------
C---------------------------------------------------
G---------------------------------------------------
C---------------------------------------------------

Play that 4 times, then play this 4 times: 

D---------------------------------------------------
A---------------------------------------------------
F---------------------------------------------------
C--5-5-5-5-3-0-0--0-0--0-3-5------------------------
G--5-5-5-5-3-0-0--0-0--0-3-5------------------------
C--5-5-5-5-3-0-0--0-0--0-3-5------------------------


Verse.  (Repeat 8 times.)

D---------------------------------------------------
A---------------------------------------------------
F---------------------------------------------------
C--0--3--0--3--5---6--6--6--5-5--3-3----------------
G--0--3--0--3--5---6--6--6--5-5--3-3----------------
C--0--3--0--3--5---6--6--6--5-5--3-3----------------


Chorus.  (Strummed fast, play twice.)

D---------------------------------------------------
A---------------------------------------------------
F--7--------5-----------------5---------------------
C--7-x16----5-x16----8--------5-x16-----------------
G--5--------3--------8-x16----3---------------------
C--------------------8------------------------------


Then, (but only on the first chorus), play this twice:

D-9-9-9-9-9-9-9-9-/-10~~ ---------------------------
A-X-X-X-X-X-X-X-X-/-X-~~ ---------------------------
F-6-6-6-6-6-6-6-6-/-7-~~ ---------------------------
C---------------------------------------------------
G---------------------------------------------------
C---------------------------------------------------


Verse.  (Repeat 8 times.)

D---------------------------------------------------
A---------------------------------------------------
F---------------------------------------------------
C--0--3--0--3--5---6--6--6--5-5--3-3----------------
G--0--3--0--3--5---6--6--6--5-5--3-3----------------
C--0--3--0--3--5---6--6--6--5-5--3-3----------------


Chorus.  (Strummed fast, play twice.)

D---------------------------------------------------
A---------------------------------------------------
F--7--------5-----------------5---------------------
C--7-x16----5-x16----8--------5-x16-----------------
G--5--------3--------8-x16----3---------------------
C--------------------8------------------------------


Solo.

D---8-----------------------------------------------
A------8-7~~ ---7h8p7~~ -7h8p7h8p7~~ ---------------
F---------------------------------------------------
C---------------------------------------------------
G---------------------------------------------------
C---------------------------------------------------

D---8---------------------------10~~----------------
A------8-7~~ ---7h8p7~~ --8/10----------------------
F---------------------------------------------------
C---------------------------------------------------
G---------------------------------------------------
C---------------------------------------------------


Bridge.  (Played slowly, 8 times.)

D--10-10-10-10--14-14-14-14--9-9-9-9----------------
A--X--X--X--X---X--X--X--X---X-X-X-X----------------
F--7--7--7--7---11-11-11-11--6-6-6-6----------------
C---------------------------------------------------
G---------------------------------------------------
C---------------------------------------------------

Then the chorus is played 4 times to end the song:
(Strummed fast.)

D---------------------------------------------------
A---------------------------------------------------
F--7--------5-----------------5---------------------
C--7-x16----5-x16----8--------5-x16-----------------
G--5--------3--------8-x16----3---------------------
C--------------------8------------------------------


Then, after the last time, hit this chord once and let it ring out:

D---------------------------------------------------
A---------------------------------------------------
F--7~~~~ -------------------------------------------
C--7~~~~ -------------------------------------------
G--5~~~~ -------------------------------------------
C---------------------------------------------------

There ya go, keep practising it and you'll be fine. It looks long, but it sounds great.
Just listen to the record for timing,lyrics etc. and send any comments, cash donations :P
or mindless criticism to:

themirrorstolemysoul@hotmail.com
Tap to rate this tab
# A B C D E F G H I J K L M N O P Q R S T U V W X Y Z