Song name
# A B C D E F G H I J K L M N O P Q R S T U V W X Y Z

Saliva - Click Click Boom tab

well so far, ive not seen one version that i felt was right, so i decided to make my own.

tuning is drop D flat people.

m- palm mute
*- hold note
s- slide
x- mute

Intro:
Eb|-------------------------------------------------|
Bb|-------------------------------------------------|
Gb|----6x6x-------------6x6-------------------------|x4
Db|1---6x6x-6666-4--6-1-6x6-------------------------|
Ab|1---4x4x-6666-4--6-1-4x4-------------------------|
Db|1--------6666-4--6-1-----------------------------|

Verse 1:
Eb|-------------|---|-------------|
Bb|-------------|---|-------------|
Gb|-------------|x4-|-------------|x4
Db|-------------|---|1-2-2-4-4h6-4|
Ab|-------------|---|1-2-2-4-4h6-4|
Db|1-2-2-4-4h6-4|---|1-2-2-4-4h6-4|
   m m m m m m m

Chorus:
Eb|-------------------------------------------------|
Bb|-------------------------------------------------|
Gb|----6x6x-------------6x6-------------------------|
Db|1---6x6x-6666-4--6-1-6x6-------------------------|x4
Ab|1---4x4x-6666-4--6-1-4x4-------------------------|
Db|1--------6666-4--6-1-----------------------------|

After Chorus:                  1     2
Eb|--------------------------------|---|
Bb|--------------------------------|---|
Gb|--------------------------------|---|
Db|8*-8*--8*-8*--6*-6*--6*-6*--x2--|s4s|
Ab|8*-8*--8*-8*--6*-6*--6*-6*------|s4s|
Db|8*-8*--8*-8*--6*-6*--6*-6*------|s4s|


Eb|-------------------------------------------------|
Bb|-------------------------------------------------|
Gb|----6x6x-------------6x6-------------------------|
Db|1---6x6x-6666-4--6-1-6x6-------------------------|x2
Ab|1---4x4x-6666-4--6-1-4x4-------------------------|
Db|1--------6666-4--6-1-----------------------------|


Verse 2:
Eb|-------------|---|-------------|
Bb|-------------|---|-------------|
Gb|-------------|x4-|-------------|x4
Db|-------------|---|1-2-2-4-4h6-4|
Ab|-------------|---|1-2-2-4-4h6-4|
Db|1-2-2-4-4h6-4|---|1-2-2-4-4h6-4|
   m m m m m m m

Chorus:
Eb|-------------------------------------------------|
Bb|-------------------------------------------------|
Gb|----6x6x-------------6x6-------------------------|
Db|1---6x6x-6666-4--6-1-6x6-------------------------|x4
Ab|1---4x4x-6666-4--6-1-4x4-------------------------|
Db|1--------6666-4--6-1-----------------------------|

After Chorus:                    1     2
Eb|--------------------------------|---|
Bb|--------------------------------|---|
Gb|--------------------------------|---|
Db|8*-8*--8*-8*--6*-6*--6*-6*--x2--|s4s|
Ab|8*-8*--8*-8*--6*-6*--6*-6*------|s4s|
Db|8*-8*--8*-8*--6*-6*--6*-6*------|s4s|

Chorus:
Eb|-------------------------------------------------|
Bb|-------------------------------------------------|
Gb|----6x6x-------------6x6-------------------------|
Db|1---6x6x-6666-4--6-1-6x6-------------------------|x4
Ab|1---4x4x-6666-4--6-1-4x4-------------------------|
Db|1--------6666-4--6-1-----------------------------|

Bridge(3:10):
Eb|--------------------------------------------------------------------|
Bb|--------------------------------------------------------------------|
Gb|8-8-8-s4-4-4-4-4-s6-6-6------------8-8-8-s4-4-4-4-4-s3-3-3----------|
Db|8-8-8-s4-4-4-4-4-s6-6-6-6-6-6-6-6--8-8-8-s4-4-4-4-4-s3-3-3-6-6-6-6-6|
Ab|6-6-6-s2-2-2-2-2-s4-4-4-6-6-6-6-6--6-6-6-s2-2-2-2-2-s1-1-1-6-6-6-6-6|
Db|------------------------6-6-6-6-6--------------------------6-6-6-6-6|

Eb|--------------------------------------------------------------|
Bb|--------------------------------------------------------------|
Gb|8-8-8-s4-4-4-4-4-s6-6-6------------8-8-8-s4-4-4-4-4-----------|
Db|8-8-8-s4-4-4-4-4-s6-6-6-6-6-6-6-6--8-8-8-s4-4-4-4-4--8-8-8-8-8|
Ab|6-6-6-s2-2-2-2-2-s4-4-4-6-6-6-6-6--6-6-6-s2-2-2-2-2--8-8-8-8-8|
Db|------------------------6-6-6-6-6--------------------8-8-8-8-8|
                                                        m m m m m

Chorus:
Eb|-------------------------------------------------|
Bb|-------------------------------------------------|
Gb|----6x6x-------------6x6-------------------------|
Db|1---6x6x-6666-4--6-1-6x6-------------------------|x4
Ab|1---4x4x-6666-4--6-1-4x4-------------------------|
Db|1--------6666-4--6-1-----------------------------|

Outro:
Eb|------------------------------------------------------|
Bb|------------------------------------------------------|
Gb|----6x6x-------------6x6x-----------------------------|
Db|1---6x6x-6666-4--6-1-6x6x-6666-4--6-------------------|x3
Ab|1---4x4x-6666-4--6-1-4x4x-6666-4--6-------------------|
Db|1--------6666-4--6-1------6666-4--6-------------------|

Eb|-------------------------------------------------|
Bb|-------------------------------------------------|
Gb|----6x6x-------------6x6-------------------------|
Db|1---6x6x-6666-4--6-1-6x6-------------------------|
Ab|1---4x4x-6666-4--6-1-4x4-------------------------|
Db|1--------6666-4--6-1-----------------------------|

i'm pretty sure this tab is almost perfect.
it took me about an hour to do this, so feedback would be nice.
Tap to rate this tab
# A B C D E F G H I J K L M N O P Q R S T U V W X Y Z