Song name
# A B C D E F G H I J K L M N O P Q R S T U V W X Y Z

Saliva - Ladies And Gentlemen tab

-----------------------------------------------------------------------------
			     "Ladies and Gentlemen" ----- Saliva
-----------------------------------------------------------------------------


: Drop D 1/2 step === Db Ab Db Gb Bb Eb (low to high)




Key:

h = hammer on
* = harmonic
b = bend
1 = full step bend
.5 = half step bend
__ = hold bend
() = bring bent note back to normal
... = palm muted
p = pull off
/ = slide up
\ = slide down
~ = vibrato



+++++++++++++++++++++++++++++++++++++++++++
Intro:
Guitar 3:

These notes are all harmonics. 3.7 means you lightly put your finger over
the 3rd fret, but a little bit after the fret dot mark of the 3rd fret. 
3.3 means you put your finger over the 3rd fret again, but a little bit
before the fret dot mark of the 3rd fret. 4.3 means you put your finger 
over the 4th fret, but a little bit before the fret dot mark of the 4th fret.

eb|------------------------------------------------|
Bb|------------------------------------------------|
Gb|------------------------------------------------|
Db|------------------------------------------------| x1
Ab|------------------------------------------------|
Db|-3.7*--3.7*--3.7*--3.3*--4.3*--4.3*--4.3*--4.3*-|


++++++++++++++++++++++++++++++++++++++++++

Guitars 1 and 2:
eb|----------------------------------------|
Bb|----------------------------------------|
Gb|----------------------------------------|
Db|-3--0-0--5--0-0--3--0-0--5--0-0--3-2--0-| x2
Ab|-3--0-0--5--0-0--3--0-0--5--0-0--3-2--0-|
Db|-3--0-0--5--0-0--3--0-0--5--0-0--3-2--0-|


+++++++++++++++++++++++++++++++++++++++++++
Guitars 1 and 2:
eb|----------------------------------------|
Bb|----------------------------------------|
Gb|----------------------------------------|
Db|-3--0-0--5--0-0--3--0-0--5--0-0--3-2--0-| x2
Ab|-3--0-0--5--0-0--3--0-0--5--0-0--3-2--0-|
Db|-3--0-0--5--0-0--3--0-0--5--0-0--3-2--0-|


Guitar 3:
eb|-13/14--14----13/14--14-|
Bb|-12/13--13----12/13--13-|
Gb|------------------------|
Db|------------------------| x2 
Ab|------------------------|
Db|------------------------|


+++++++++++++++++++++++++++++++++++++++++++
Guitar 3:
Play the 3.3 in the |--| only at the end of the first time.
eb|------------------------------------------------|------|
Bb|------------------------------------------------|------|
Gb|------------------------------------------------|------|
Db|------------------------------------------------|------| x2
Ab|------------------------------------------------|------|
Db|-3.7*--3.7*--3.7*--3.3*--4.3*--4.3*--4.3*--4.3*-|-3.3*-|


+++++++++++++++++++++++++++++++++++++++++++
Guitar 3:
Play the 3.3 in the |--| only at the end of the first time.
eb|------------------------------------------------|------|
Bb|------------------------------------------------|------|
Gb|------------------------------------------------|------|
Db|------------------------------------------------|------| x2
Ab|------------------------------------------------|------|
Db|-3.7*--3.7*--3.7*--3.3*--4.3*--4.3*--4.3*--4.3*-|-3.3*-|


Guitars 1 and 2:
eb|----------------------------------------|
Bb|----------------------------------------|
Gb|----------------------------------------|
Db|-3--0-0--5--0-0--3--0-0--5--0-0--3-2--0-| x2
Ab|-3--0-0--5--0-0--3--0-0--5--0-0--3-2--0-|
Db|-3--0-0--5--0-0--3--0-0--5--0-0--3-2--0-|
    ...................................

++++++++++++++++++++++++++++++++++++++++++++
Pre Chorus:
Guitars 1 and 2: 
Listen for rhythm of these chords.

    x?   x?    x?   x?   x?  x?
eb|------------------------------|
Bb|------------------------------|
Gb|-10---7---5/7----10---7---12--|
Db|-10---7---5/7----10---7---12--| x1
Ab|-8----5---3/5----8----5---10--|
Db|-8----5---3/5----8----5---10--|



Guitar 3: I'm not sure about this part. It's pretty close. 
This is in the backround of Guitars 1 and 2.
eb|---------------------------------------|
Bb|---------------------------------------|
Gb|-9h10~~--9h10--10----12p10--12p10--10--|
Db|---------------------------------------| x?
Ab|---------------------------------------|
Db|---------------------------------------|

+++++++++++++++++++++++++++++++++++++++++++++
Chorus:
Guitars 1 and 2:
Make sure you see the palm mute mark ( . ) under the 0s after the 12.
Play the 0s in the |--| at the end of the second time only. 
                                                                        2nd
eb|--------------------------------------------------------------------|---|
Bb|--------------------------------------------------------------------|---|
Gb|--------------------------------------------------------------------|---|
Db|-12\\---0--3~---12\\---0--3~---12\\---0--3~---0-3--0-0--5--0-0--3-2-|-0-| x2
Ab|-12\\---0--3~---12\\---0--3~---12\\---0--3~---0-3--0-0--5--0-0--3-2-|-0-|
Db|-12\\---0--3~---12\\---0--3~---12\\---0--3~---0-3--0-0--5--0-0--3-2-|-0-|
           .              .              .

++++++++++++++++++++++++++++++++++++++++++++++
Interlude 1:
Guitar 3: use a wah-wah pedal for this part. Listen for rhythm of each chord (x?).

           x?                 x?
eb|------------------------------|
Bb|------------------------------|
Gb|------------------------------|
Db|-9/10---10---10--10\9--9---7--| x2
Ab|-x--x----x----x---x-x--x---x--|
Db|-9/10---10---10--10\9--9---7--|


Guitars 1 and 2:
eb|----------------------------------------|
Bb|----------------------------------------|
Gb|----------------------------------------|
Db|-3--0-0--5--0-0--3--0-0--5--0-0--3-2--0-| x2
Ab|-3--0-0--5--0-0--3--0-0--5--0-0--3-2--0-|
Db|-3--0-0--5--0-0--3--0-0--5--0-0--3-2--0-|

+++++++++++++++++++++++++++++++++++++++++++++++
Guitar 3:
Play the 3.3 in the |--| only at the end of the first time.
eb|------------------------------------------------|------|
Bb|------------------------------------------------|------|
Gb|------------------------------------------------|------|
Db|------------------------------------------------|------| x2
Ab|------------------------------------------------|------|
Db|-3.7*--3.7*--3.7*--3.3*--4.3*--4.3*--4.3*--4.3*-|-3.3*-|


+++++++++++++++++++++++++++++++++++++++++++
Guitar 3:
Play the 3.3 in the |--| only at the end of the first time.
eb|------------------------------------------------|------|
Bb|------------------------------------------------|------|
Gb|------------------------------------------------|------|
Db|------------------------------------------------|------| x2
Ab|------------------------------------------------|------|
Db|-3.7*--3.7*--3.7*--3.3*--4.3*--4.3*--4.3*--4.3*-|-3.3*-|

[ Tab from: http://www.guitaretab.com/s/saliva/83356.html ]
Guitars 1 and 2:
eb|----------------------------------------|
Bb|----------------------------------------|
Gb|----------------------------------------|
Db|-3--0-0--5--0-0--3--0-0--5--0-0--3-2--0-| x2
Ab|-3--0-0--5--0-0--3--0-0--5--0-0--3-2--0-|
Db|-3--0-0--5--0-0--3--0-0--5--0-0--3-2--0-|
    ...................................

++++++++++++++++++++++++++++++++++++++++++++
Pre Chorus:
Guitars 1 and 2: 
Listen for rhythm of these chords.

    x?   x?    x?   x?   x?  x?
eb|------------------------------|
Bb|------------------------------|
Gb|-10---7---5/7----10---7---12--|
Db|-10---7---5/7----10---7---12--| x1
Ab|-8----5---3/5----8----5---10--|
Db|-8----5---3/5----8----5---10--|



Guitar 3: I'm not sure about this part. It's pretty close. 
This is in the backround of Guitars 1 and 2.
eb|---------------------------------------|
Bb|---------------------------------------|
Gb|-9h10~~--9h10--10----12p10--12p10--10--|
Db|---------------------------------------| x?
Ab|---------------------------------------|
Db|---------------------------------------|

++++++++++++++++++++++++++++++++++++++++++++
Chorus:
Guitars 1 and 2:
Make sure you see the palm mute mark ( . ) under the 0s after the 12.
Play the 0s in the |--| at the end of the 2nd time.
                                                                        2nd
eb|--------------------------------------------------------------------|---|
Bb|--------------------------------------------------------------------|---|
Gb|--------------------------------------------------------------------|---|
Db|-12\\---0--3~---12\\---0--3~---12\\---0--3~---0-3--0-0--5--0-0--3-2-|-0-| x2
Ab|-12\\---0--3~---12\\---0--3~---12\\---0--3~---0-3--0-0--5--0-0--3-2-|-0-|
Db|-12\\---0--3~---12\\---0--3~---12\\---0--3~---0-3--0-0--5--0-0--3-2-|-0-|
           .              .              .

++++++++++++++++++++++++++++++++++++++++++++
Bass Interlude

Guitar 3:
eb|------------------------------------|
Bb|------------------------------------|
Gb|------------------------------------|
Db|------------------------------------| x2
Ab|------------------------------------|
Db|-3.7*--3.7*--3.7*--3.7*--3.7*--3.3*-|

++++++++++++++++++++++++++++++++++++++++++++
Guitar Solo:

Guitars 1 and 2:
Play this over the whole solo.
eb|----------------------------------------|
Bb|----------------------------------------|
Gb|----------------------------------------|
Db|-3--0-0--5--0-0--3--0-0--5--0-0--3-2--0-| x4
Ab|-3--0-0--5--0-0--3--0-0--5--0-0--3-2--0-|
Db|-3--0-0--5--0-0--3--0-0--5--0-0--3-2--0-|
    ...................................


Guitar 3:
While bending the 13th fret back down to normal, slowly pick it.
 
      1_______          1_______          1______                   1______
eb|----------------------------------10-13b------(13)---13p10--10-13b------(13)-|
Bb|-13b-------(13)---/13b-------(13)--------------------------------------------|
Gb|-----------------------------------------------------------------------------|
Db|-----------------------------------------------------------------------------|
Ab|-----------------------------------------------------------------------------|
Db|-----------------------------------------------------------------------------|

+++++++++++++++++++++++++++++++++++++++++++
Guitar Solo Continued:

Guitar 3:
                1_________
eb|-13p10--10-------------|
Bb|-----------13b~~~~~~~~-|
Gb|-----------------------|
Db|-----------------------|
Ab|-----------------------|
Db|-----------------------|

++++++++++++++++++++++++++++++++++++++++++++
Guitar Solo Continued:

Guitar 4:
eb|-13/14--14----13/14--14-|
Bb|-12/13--13----12/13--13-|
Gb|------------------------|
Db|------------------------| x4
Ab|------------------------|
Db|------------------------|


Guitar 3:
It's hard to hear what the rest of the solo is.


Guitars 1 and 2:
eb|----------------------------------------|
Bb|----------------------------------------|
Gb|----------------------------------------|
Db|-3--0-0--5--0-0--3--0-0--5--0-0--3-2--0-| x4
Ab|-3--0-0--5--0-0--3--0-0--5--0-0--3-2--0-|
Db|-3--0-0--5--0-0--3--0-0--5--0-0--3-2--0-|


++++++++++++++++++++++++++++++++++++++++++++
Pre Chorus:
Guitars 1 and 2: 
Listen for rhythm of these chords.

    x?   x?    x?   
eb|-----------------|
Bb|-----------------|
Gb|-10---7---5/7----|
Db|-10---7---5/7----| x2
Ab|-8----5---3/5----|
Db|-8----5---3/5----|



Guitar 3: I'm not sure about this part. It's pretty close. 
This is in the backround of Guitars 1 and 2.
eb|---------------------------------------|
Bb|---------------------------------------|
Gb|-9h10~~--9h10--10----12p10--12p10--10--|
Db|---------------------------------------| x?
Ab|---------------------------------------|
Db|---------------------------------------|

+++++++++++++++++++++++++++++++++++++++++++++
Pre Chorus Continued:
Guitars 1 and 2: 
Listen for rhythm of these chords.

    x?   x?  x?
eb|--------------|
Bb|--------------|
Gb|-10---7---12--|
Db|-10---7---12--| x1
Ab|-8----5---10--|
Db|-8----5---10--|


Guitar 3: I'm not sure about this part. It's pretty close. 
This is in the backround of Guitars 1 and 2.
eb|---------------------------------------|
Bb|---------------------------------------|
Gb|-9h10~~--9h10--10----12p10--12p10--10--|
Db|---------------------------------------| x?
Ab|---------------------------------------|
Db|---------------------------------------|

+++++++++++++++++++++++++++++++++++++++++++++
Chorus:
Guitars 1 and 2: 
Make sure you see the palm mute mark ( . ) under the 0s after the 12.
On the 4th time playing this riff, pick the 0s in the |--| at the very end.

                                                                         4th
eb|--------------------------------------------------------------------|-----|
Bb|--------------------------------------------------------------------|-----|
Gb|--------------------------------------------------------------------|-----|
Db|-12\\---0--3~---12\\---0--3~---12\\---0--3~---0-3--0-0--5--0-0--3-2-|--0~-| x4
Ab|-12\\---0--3~---12\\---0--3~---12\\---0--3~---0-3--0-0--5--0-0--3-2-|--0~-|
Db|-12\\---0--3~---12\\---0--3~---12\\---0--3~---0-3--0-0--5--0-0--3-2-|--0~-|
           .              .              .       


+++++++++++++++++++++++++++++++++++++++++++++
Outro:
Play the 3.3 in the |--| only at the end of the first time.
                                                     1st
eb|------------------------------------------------|------|
Bb|------------------------------------------------|------|
Gb|------------------------------------------------|------|
Db|------------------------------------------------|------| x2
Ab|------------------------------------------------|------|
Db|-3.7*--3.7*--3.7*--3.3*--4.3*--4.3*--4.3*--4.3*-|-3.3*-|

+++++++++++++++++++++++++++++++++++++++++++++
That's it.
Tap to rate this tab
 
# A B C D E F G H I J K L M N O P Q R S T U V W X Y Z