Song name
# A B C D E F G H I J K L M N O P Q R S T U V W X Y Z

Saliva - King Of My World tab

Artist: Saliva
Song: King of my World
Album: WWE Anthology
Tabbed by: Max Deuble (deuble.max@gmail.com)

This is a pretty easy song to play. Just listen to the song to get some of the rhythm 
patterns for the chorus. I figured out the solo yet.

Tuning: Drop Db (DbAbDbGbBbEb) or C# (C#G#C#F#A#D#)

INTRO x 2
Eb|-----------------|-------------------|
Bb|-----------------|-------------------|
Gb|-----------------|-------------------|
Db|-3-0--3-0--3h555-|-3-0--3-0--10h0p10-|
Ab|-3-0--3-0--3h555-|-3-0--3-0--10h0p10-|
Db|-3-0--3-0--3h555-|-3-0--3-0--10h0p10-|


Eb|-----------------|-----------------|
Bb|-----------------|-----------------|
Gb|-----------------|-----------------|
Db|-3-0--3-0--3h555-|-3-0--3-0--5-4-3-| x 2
Ab|-3-0--3-0--3h555-|-3-0--3-0--5-4-3-|
Db|-3-0--3-0--3h555-|-3-0--3-0--5-4-3-|


LEAD GUITAR PART
Eb|----------------------------|------------------------------------|
Bb|----------------------------|------------------------------------|
Gb|---5~--4~---2~--2h4p2-1~----|----17~--16~--14~--14h16p14-13~-----| x 1
Db|----------------------------|------------------------------------|
Ab|----------------------------|------------------------------------|
Db|----------------------------|------------------------------------|


VERSE (palm muted)
Eb|-------------|-------------|-------------|-----------------------|
Bb|-------------|-------------|-------------|-----------------------|
Gb|-------------|-------------|-------------|-----------------------|
Db|-------------|-------------|-------------|-----------------------| x 2
Ab|--3-0--3-0---|--3-0--3-0---|--3-0--3-0---|--3-0--3-0--5-4-3------|
Db|--3-0--3-0---|--3-0--3-0---|--3-0--3-0---|--3-0--3-0--5-4-3------|


PRE-CHORUS
Eb|--------------|------------------------------------|
Bb|--------------|------------------------------------|
Gb|--------------|------------------------------------|
Db|-3/8-88888888|-10--10-10-10-10-10-10-10-----------|
Ab|-3/8-88888888|-10--10-10-10-10-10-10-10-----------|
Db|-3/8-88888888|-10--10-10-10-10-10-10-10-----------|


CHORUS (listen to song for exact rhythm)
Eb|-----------|-----------|-----------|----------------------------|
Bb|-----------|-----------|-----------|----------------------------|
Gb|-----------|-----------|-----------|----------------------------|
Db|-0--0-000--|-3--3-333--|-5--5-555--|-3xx5--5p3h5p3--------------| x 2
Ab|-0--0-000--|-3--3-333--|-5--5-555--|-3xx5--5p3h5p3--------------|
Db|-0--0-000--|-3--3-333--|-5--5-555--|-3xx5--5p3h5p3--------------|


INTERLUDE (repeat INTRO)
Eb|-----------------|-------------------|
Bb|-----------------|-------------------|
Gb|-----------------|-------------------|
Db|-3-0--3-0--3h555-|-3-0--3-0--10h0p10-|
Ab|-3-0--3-0--3h555-|-3-0--3-0--10h0p10-|
Db|-3-0--3-0--3h555-|-3-0--3-0--10h0p10-|


Eb|-----------------|-----------------|
Bb|-----------------|-----------------|
Gb|-----------------|-----------------|
Db|-3-0--3-0--3h555-|-3-0--3-0--5-4-3-| x 1
Ab|-3-0--3-0--3h555-|-3-0--3-0--5-4-3-|
Db|-3-0--3-0--3h555-|-3-0--3-0--5-4-3-|


LEAD GUITAR PART
Eb|----------------------------|------------------------------------|
Bb|----------------------------|------------------------------------|
Gb|---5~--4~---2~--2h4p2-1~----|----17~--16~--14~--14h16p14-13~-----| x 1
Db|----------------------------|------------------------------------|
Ab|----------------------------|------------------------------------|
Db|----------------------------|------------------------------------|


VERSE (palm muted)
Eb|-------------|-------------|-------------|-----------------------|
Bb|-------------|-------------|-------------|-----------------------|
Gb|-------------|-------------|-------------|-----------------------|
Db|-------------|-------------|-------------|-----------------------| x 2
Ab|--3-0--3-0---|--3-0--3-0---|--3-0--3-0---|--3-0--3-0--5-4-3------|
Db|--3-0--3-0---|--3-0--3-0---|--3-0--3-0---|--3-0--3-0--5-4-3------|


PRE-CHORUS
Eb|--------------|----------------------------------|
Bb|--------------|----------------------------------|
Gb|--------------|----------------------------------|
Db|-3/8-88888888|-10--10-10-10-10-10-10-10---------|
Ab|-3/8-88888888|-10--10-10-10-10-10-10-10---------|
Db|-3/8-88888888|-10--10-10-10-10-10-10-10---------|


CHORUS (listen to song for exact rhythm)
Eb|-----------|-----------|-----------|----------------------------|
Bb|-----------|-----------|-----------|----------------------------|
Gb|-----------|-----------|-----------|----------------------------|
Db|-0--0-000--|-3--3-333--|-5--5-555--|-3xx5--5p3h5p3--------------| x 2
Ab|-0--0-000--|-3--3-333--|-5--5-555--|-3xx5--5p3h5p3--------------|
Db|-0--0-000--|-3--3-333--|-5--5-555--|-3xx5--5p3h5p3--------------|


BRIDGE (palm muted)
Eb|----------------------|         |----------------------------|
Bb|----------------------|         |----------------------------|
Gb|----------------------|         |----------------------------|
Db|----------------------| x3 THEN |----------------5-4-3-------|
Ab|-3-00-0--3-00xx-------|         |-3-00-0-3-00xx--5-4-3-------|
Db|-3-00-0--3-00xx-------|         |-3-00-0-3-00xx--5-4-3-------|


SOLO (RHYTHM GUITAR PART)
Eb|------------------|
Bb|------------------|
Gb|------------------|
Db|-30--3-0--3h5555-| x 4
Ab|-30--3-0--3h5555-|
Db|-30--3-0--3h5555-|


POST-SOLO (listen to song for rhythm)
Eb|----------|---------|----------|-----------------|
Bb|----------|---------|----------|-----------------|
Gb|----------|---------|----------|-----------------|
Db|-88888888-|-0-0-0-0-|-88888888-|-10-10-10-10-10--|
Ab|-88888888-|-0-0-0-0-|-88888888-|-10-10-10-10-10--|
Db|-88888888-|-0-0-0-0-|-88888888-|-10-10-10-10-10--|


CHORUS (listen to song for exact rhythm)
Eb|-----------|-----------|-----------|------------------------|
Bb|-----------|-----------|-----------|------------------------|
Gb|-----------|-----------|-----------|------------------------|
Db|-0--0-000--|-3--3-333--|-5--5-555--|-3xx5--5p3h5p3----------| x 2
Ab|-0--0-000--|-3--3-333--|-5--5-555--|-3xx5--5p3h5p3----------|
Db|-0--0-000--|-3--3-333--|-5--5-555--|-3xx5--5p3h5p3----------|


FINAL CHORUS (listen to song for rhythm)
Eb|---------|--------|--------|-----------------------------|
Bb|---------|--------|--------|-----------------------------|
Gb|---------|--------|--------|-----------------------------|
Db|--0-0000-|-3-3333-|-5-5555-|-33-33-33-333h555------------|
Ab|--0-0000-|-3-3333-|-5-5555-|-33-33-33-333h555------------|
Db|--0-0000-|-3-3333-|-5-5555-|-33-33-33-333h555------------|


OUTRO
Eb|-----------------|-------------------|-----------------|---------------|
Bb|-----------------|-------------------|-----------------|---------------|
Gb|-----------------|-------------------|-----------------|---------------|
Db|-3-0--3-0--3h555-|-3-0--3-0--10h0p10-|-3-0--3-0--3h555-|-3-0-0-0h3p0-0-|
Ab|-3-0--3-0--3h555-|-3-0--3-0--10h0p10-|-3-0--3-0--3h555-|-3-0-0-0h3p0-0-|
Db|-3-0--3-0--3h555-|-3-0--3-0--10h0p10-|-3-0--3-0--3h555-|-3-0-0-0h3p0-0-|


Eb|-----------------|---------------|
Bb|-----------------|---------------|
Gb|-----------------|---------------|
Db|-3-0--3-0--3h555-|-3-0-0-0h3p0-0-|
Ab|-3-0--3-0--3h555-|-3-0-0-0h3p0-0-|
Db|-3-0--3-0--3h555-|-3-0-0-0h3p0-0-|


Any comments, corrections, or questions, feel free to contact me
deuble.max@gmail.com
Tap to rate this tab
# A B C D E F G H I J K L M N O P Q R S T U V W X Y Z